Oops, an error
Loading. Please wait.

Hotel Califonia tab

version 2
version 2

Whole song

428 views 3 this week
no commentswrite comment
1 2 3 4 5
3 more votes to show rating
add to favorites
×
Save as Personal and add changes to this tab that will be seen only by you. Learn more ›
×
You can save this tab as Personal to edit and correct it or add notes. All changes will be seen only by you. Learn more »
launch autoscroll
font size
0
reset
how to read this tab
guitar tuner
edit
Autoscroll
slow
fast
+/-
esc
set tempo
stop
Fabian Hernandez Pedroza
zednan12@


Guitarra 1 (acústica)

(00:00)

riff 1

E|--------------------7----------|------9----------9----------|
B|--7-----7-----7--------7---7---|--11-----11-------------11--|
G|--7--7-----------7-----7---9---|--11---------11-----11------|
D|--9--------9-------------------|--8-------------------------|
A|--9----------------------------|----------------------------|
E|--7----------------------------|----------------------------|

|--5-----5--5--7--5--------5--7--7-----|-----7-----7--------7--|
|-----5-----------------5-----------7--|--7-----------7--------|
|--------------------------------------|--7-----7--------7-----|
|--7-----------------7--------7--------|-----------------------|
|--------------------------------------|-----------------------|
|--------------------------------------|-----------------------|

|-----7-----7--------7-------------10--|
|--8-----------8--------8--10^h12------|
|--7-----7--------7--------------------|
|--9-----------------------------------|
|--------------------------------------|
|--------------------------------------|

|------10----------10----------10----------10------|
|--10------------------------------10----------11--|
|----------11--11------11--11----------------------|
|--------------------------------------12----------|
|--------------------------------------------------|
|--------------------------------------------------|

|-----7-----7--------7--7---------|------9------9----------9--|
|--------------8--8--------8------|----------------11---------|
|--9-----9--------------------9---|--11-----11---------11-----|
|---------------------------------|---------------------------|
|-----------------------------10--|--9------------------------|
|---------------------------------|---------------------------|


----------------------------------------------------------------------
----------------------------------------------------------------------

(00:25)

Guitarra 1 y 2 (acústicas)

riff 2

|--7--7-----10--------7--7-----------|------9----------9----------|
|--7-----7------7--7--------7--------|--11-----11-------------11--|
|--7---------------------------7^h9--|--11---------11-----11------|
|--9--------9------------------------|--8-------------------------|
|--9---------------------------------|----------------------------|
|--7---------------------------------|----------------------------|
|                                    |                            |
|                                    |                            |
|------------------------------------|----------------------------|
|------------------------------------|----------------------------|
|------------------------------------|----------------------------|
|--0------------------2-----4--------|--2----------0--------------|
|------------------------------------|---------------4------------|
|------------------------------------|----------------------------|


|--5-----5--5--7--5--------5--7--7-----|--------------------7--|
|-----5-----------------5-----------7--|--7--7-----------------|
|--------------------------------------|--7-----7-----7--------|
|--7-----------------7--------7--------|--9--------9-----9-----|
|--------------------------------------|-----------------------|
|--------------------------------------|-----------------------|
|                                      |                       |
|                                      |                       |
|--------------------------------------|-----------------------|
|--------------------------------------|-----------------------|
|---------------------0-------2--------|-----------------------|
|--4-----------------------------------|-----------------------|
|--------------------------------------|--2~~~~~~~~~~~~~~~~~~~-|
|--------------------------------------|-----------------------|

|-----7-----7--------7-------------10--|
|--8-----------8--------8--10^h12------|
|--7-----7--------7--------------------|
|--9-----------------------------------|
|--------------------------------------|
|--------------------------------------|
|                                      |
|                                      |
|--------------------------------------|
|--------------------------------------|
|--------------------------------------|
|--2--------------------------0--------|
|---------------------4----------------|
|--------------------------------------|


|------10----------10------------------------------|
|--10--------------------------10----------10------|
|----------11--11------11--11------11--------------|
|--------------------------------------12------12--|
|--------------------------------------------------|
|--------------------------------------------------|
|                                                  |
|                                                  |
|--------------------------------------------------|
|--------------------------------------------------|
|--------------------------------------------------|
|--------------------------------------------------|
|--0----------------------------7/9----------------|
|--2-----------------------------------------------|


|-----7-----7--------7--7---------|------9------9----------9--|
|--------------8--8--------8------|----------------11---------|
|--9-----9--------------------9---|--11-----11---------11-----|
|---------------------------------|---------------------------|
|-----------------------------10--|--9------------------------|
|---------------------------------|---------------------------|
|                                 |                           |
|                                 |                           |
|---------------------------------|---------------------------|
|---------------------------------|---------------------------|
|---------------------------------|---------------------------|
|---------------------------------|---------------------------|
|--7---------------9------10------|--9~~~~~~~~~~~~~~~~~~~~~~~-|
|---------------------------------|---------------------------|


----------------------------------------------------------------------
----------------------------------------------------------------------


(00:51)

Guitarra 1 (acústica)

[Am] Siento LA carretera, [E] sueño que me abrazaras
[G] Solo quiero encontrarlo, [D] el tiempo que se nos va
[F] solfear las estrellas, [C] en un mundo irreal
[Dm] Vamos a viajar los dos , [E] a un extraño lugar

[Am] Sabes que me estremece , [E] pensar que me besaras
[G] No te sientas extraña [D] todo marchara muy bien
[F] Acariciando tu cuerpo [C] hasta el amanecer
[Dm] no me niegues entonces mujer [E] este grande placer

[F] Existe un lugar en el Hotel Califor[C]nia
[E] No me hagas sufrir (no te hagas sufrir),es mejor [Am] morir
[F] Existe un lugar en el Hotel Califor[C]nia
No [Dm] puedes sufrir (no puedes sufrir),es mejor [E] morir?

[Am] Con tu estilo de vida, [E] todo puede suceder
[G] Escucha el grito de mi corazón, [D] solo una vez
[F] Pensaras que lo hiciste, [C] sin tu sentir
[Dm] Despertando y amando, [E] no debes correr,

[Am] Solo y atormentado, [E] Triste y sin al alma , Se fue
[G] Sobras que aparecen así [D] que se van hacía el desván
[F] Talvez mañana sea tarde [C] para poder amar
[Dm] Un cariño que te quiera de verdad [E] que te haga ilusionar

[F] Existe un lugar en el Hotel Califor[C]nia
[E] No me hagas sufrir (no te hagas sufrir),es mejor [Am] morir
[F] Existe un lugar en el Hotel Califor[C]nia
No [Dm] puedes sufrir (no puedes sufrir),es mejor [E] morir

(riff 1)
Espejos de la noche, copas de anís y champan (así es)
Somos prisioneros aquí, siempre igual
En el mágico encuentro, del glamour y el  disfraz
no nos detiene el que dirán no debes dejar me atrás

[Am] Las tintas del libro es[E]critas se que darán
[G] Registrando en la vida [D] un secreto confidencial
[F] Lastima que es sueno,[C]?no quiero despertar
[Dm] Tu bien sabes que me harías feliz [E] si tu fueras para mi


----------------------------------------------------------------------
----------------------------------------------------------------------


(00:51)

Guitarra 2 (acústica)

  Siento  la carretera               Sueño que me abrazaras

--7--7-----7--7-----7--7----7--7--|--2--2----2--2-----2--2-----2--2--|
--7--7-----7--7-----7--7----7--7--|--2--2----2--2-----2--2-----2--2--|
--7--7-----7--7-----7--7----7--7--|--3--3----3--3-----3--3-----3--3--|
--9--9-----9--9-----9--9----9--9--|--4--4----4--4-----4--4-----4--4--|
----------------------------------|----------------------------------|
----------------------------------|----------------------------------|

  Solo quiero encontrarlo,           El tiempo que se nos va

--5--5-----5--5-----5--5----5--5--|--7--7----7--7-----7--7-----7--7--|
--5--5-----5--5-----5--5----5--5--|--7--7----7--7-----7--7-----7--7--|
--6--6-----6--6-----6--6----6--6--|--7--7----7--7-----7--7-----7--7--|
--7--7-----7--7-----7--7----7--7--|--6--6----6--6-----6--6-----6--6--|
----------------------------------|----------------------------------|
----------------------------------|----------------------------------|

  Solfear las estrellas            en un mundo irreal,

--3--3----3--3----3--3----3--3--|--2--2-----2--2-----2--2-----2--2--|
--3--3----3--3----3--3----3--3--|--3--3-----3--3-----3--3-----3--3--|
--4--4----4--4----4--4----4--4--|--2--2-----2--2-----2--2-----2--2--|
--5--5----5--5----5--5----5--5--|--4--4-----4--4-----4--4-----4--4--|
--------------------------------|-----------------------------------|
--------------------------------|-----------------------------------|

   Vamos a viajar los dos

---3--3-----3--3-----3--3-----3--3-----3--3--|
---5--5-----5--5-----5--5-----5--5-----5--5--|
---4--4-----4--4-----4--4-----4--4-----4--4--|
---5--5-----5--5-----5--5-----5--5-----5--5--|
---------------------------------------------|
---------------------------------------------|

   A un extraño lugar

---2--2-----2--2-----2--2-----2--2--|
---2--2-----2--2-----2--2-----2--2--|
---3--3-----3--3-----3--3-----3--3--|
---4--4-----4--4-----4--4-----4--4--|
------------------------------------|
------------------------------------|

-----------------------------------------------------------------------
-----------------------------------------------------------------------


(01:17)


Guitarra 3 (Eléctrica)

Sabes que me estremece  Pensar que besaras  No te sientas extraña

---------------------|--------------------|--------------------|
---------------------|--------------------|--------------------|
---7~~~~~~~~~~~~~~~--|--6~~~~~~~~~~~~~~~--|--6~~~~~~~~~~~~~~~--|
---9~~~~~~~~~~~~~~~--|--8~~~~~~~~~~~~~~~--|--7~~~~~~~~~~~~~~~--|
---------------------|--------------------|--------------------|
---------------------|--------------------|--------------------|

Todo marchara muy bien Acariciando tu cuerpo Hasta el amanecer
----------------------|--------------------|---------------------|
----------------------|--------------------|---------------------|
---4~~~~~~~~~~~~~~~---|--4~~~~~~~~~~~~~~~--|--2~~~~~~~~~~~~~~~---|
---6~~~~~~~~~~~~~~~---|--5~~~~~~~~~~~~~~~--|--4~~~~~~~~~~~~~~~---|
----------------------|--------------------|---------------------|
----------------------|--------------------|---------------------|

 No me niegues entonces mujer  Este grande placer.

--------------------------|------------------------------------|
--------------------------|------------------------------------|
--------------------------|------------------------------------|
---4/5~~~~~~~~~~~~~~~-----|--8^r-8~~~~~~~~~~~~--8--------------|
---5/7--------------------|--9^r-9~~~~~~~~~~~~--9--------1-2-4-|
--------------------------|----------------------------2-------|

 Existe un lugar en hotel California

---------------------|---------------------------------------------|
---------------------|--10-----10--12-----10--12/14-----12-----10--|
---------------------|--11---------12-----11--12/14-----12-----11--|
---------------------|---------------------------------------------|
---5~~~~~~~~~~~~~~~--|---------------------------------------------|
---------------------|---------------------------------------------|

 No me hagas sufrir (no me hagas sufrir) es mejor morir

---|--------------------------------------------------|
---|--------------------------------------------------|
---|--------------------------------------------------|
---|-----------------------------------------2-----4--|
---|--2~~~~~~~~~--4~~~~~~~~~---5----------------------|
---|--------------------------------------------------|

   Existe un lugar en hotel California

---------------------|---------------------------------------------|
---------------------|--10-----10--12-----10--12/14-----12-----10--|
---------------------|--11---------12-----11--12/14-----12-----11--|
---------------------|---------------------------------------------|
---5~~~~~~~~~~~~~~~--|---------------------------------------------|
---------------------|---------------------------------------------|

 No te hagas sufrir (no te hagas sufrir) es mejor morir

---|--------------------------------------------------|
---|--------------------------------------------------|
---|--------------------------------------------------|
---|-----------------------------------------2-----4--|
---|--2~~~~~~~~~--4~~~~~~~~~---5----------------------|
---|--------------------------------------------------|


  Con tu estilo de vida     Todo puede suceder
------------------------|--------------------------------|
------------------------|--------------------------------|
---7~~~~~~~~~---9---9^--|--6--------------------6--------|
---9~~~~~~~~~--11--11^--|--8--------------------8--------|
------------------------|--------------------------------|
------------------------|--------------------------------|
   Escucha el grito de mi corazón       Solo una vez

----------------------------------|----------------------------------|
----------------------------------|---------------------------5--5^--|
--6-------------------------------|--4~~~~~~~~~~~~~~~~~~~~~~--6--6^--|
--7-------------------------------|--6~~~~~~~~~~~~~~~~~~~~~~---------|
----------------------------------|----------------------------------|
----------------------------------|----------------------------------|

    Pensaras que lo hiciste       Sin tu sentir
------------------------------|--------------------------------
------------------------------|--------------------------------
---4--------------------------|--2-----------------------------
---5--------------------------|--4--------------------------4/-
------------------------------|-----------------------------5/-
------------------------------|--------------------------------

     Despertando y amando                      No debes correr
----------------------------------------|----------------------------|
----------------------------------------|----------------------------|
----------------------------------------|-------------------------6--|
--5------------------------------8^-----|--8~~~~~-----8----9------8--|
--7------------------------------9^-----|--9~~~~~-----9----10--------|
----------------------------------------|----------------------------|

    Solo y atormentado
---|-------------------14p13--14~~~~~~-----|
---|---------------15--15p14--15~~~~~~-----|
---|---------------16----------------------|
---|---------------------------------------|
---|---------------------------------------|
---|---------------------------------------|

   Triste y sin alma (se fue)
---------------------14p13--14~~~~~~-----|
-----------------14--14p13--14~~~~~~-----|
-----------------15----------------------|
-----------------------------------------|
-----------------------------------------|
-----------------------------------------|

   Sombras que aparecen así
--------------------------12p11--12~~~~~~------|
----------------------14--14p13--14~~~~~~------|
----------------------14-----------------------|
-----------------------------------------------|
-----------------------------------------------|
-----------------------------------------------|

   Que se van hacia el desván
------------------------12p11--12~~~~~~-----|
--------------------12--12p11--12~~~~~~-----|
--------------------13----------------------|
--------------------------------------------|
--------------------------------------------|
--------------------------------------------|

   Talvez mañana sea tarde
------------------10p9---10~~~~~~-----|
--------------12--12p10--12~~~~~~-----|
--------------12----------------------|
--------------------------------------|
--------------------------------------|
--------------------------------------|

   Para poder amar
----------------10p9--10~~~~~~--|
------------10--10p9--10~~~~~~--|
------------11------------------|
--------------------------------|
--------------------------------|
--------------------------------|


Un cariño que te quiera de verdad

-----------------------------------------------|
-----------------------12p10--12-------14^p12--|
-------------------12--12p11--12-------14^p12--|
-------------------14--------------------------|
-----------------------------------------------|
-----------------------------------------------|

Que te haga ilusionar

---------------------
--14-----------------
--15-----------------
---------------------
---------------------
---------------------

Existe un lugar en hotel California

---------------------|---------------------------------------------|
---------------------|--10-----10--12-----10--12/14-----12-----10--|
---------------------|--11---------12-----11--12/14-----12-----11--|
---------------------|---------------------------------------------|
---5~~~~~~~~~~~~~~~--|---------------------------------------------|
---------------------|---------------------------------------------|

 No me hagas sufrir (no me hagas sufrir) es mejor morir

---|--------------------------------------------------|
---|--------------------------------------------------|
---|--------------------------------------------------|
---|-----------------------------------------2-----4--|
---|--2~~~~~~~~~--4~~~~~~~~~---5----------------------|
---|--------------------------------------------------|

   Existe un lugar en hotel California

---------------------|---------------------------------------------|
---------------------|--10-----10--12-----10--12/14-----12-----10--|
---------------------|--11---------12-----11--12/14-----12-----11--|
---------------------|---------------------------------------------|
---5~~~~~~~~~~~~~~~--|---------------------------------------------|
---------------------|---------------------------------------------|

 No te hagas sufrir (no te hagas sufrir) es mejor morir

---|--------------------------------------------------|
---|--------------------------------------------------|
---|--------------------------------------------------|
---|-----------------------------------------2-----4--|
---|--2~~~~~~~~~--4~~~~~~~~~---5----------------------|
---|--------------------------------------------------|


----------------------------------------------------------------------
----------------------------------------------------------------------


(03:25)


Guitarra 2 (acustica)


  Espejos de la noche             Copas de anís y champán

--------------------7----------|------9----------9----------|
--7-----7-----7--------7---7---|--11-----11-------------11--|
--7--7-----------7-----7---9---|--11---------11-----11------|
--9--------9-------------------|--8-------------------------|
--9----------------------------|----------------------------|
--7----------------------------|----------------------------|

  Somos prisioneros aquí               Siempre igual

--5-----5--5--7--5--------5--7--7-----|-----7-----7--------7--|
-----5-----------------5-----------7--|--7-----------7--------|
--------------------------------------|--7-----7--------7-----|
--7-----------------7--------7--------|-----------------------|
--------------------------------------|-----------------------|
--------------------------------------|-----------------------|

  En el mágico encuentro

-----7-----7--------7-------------10--|
--8-----------8--------8--10^h12------|
--7-----7--------7--------------------|
--9-----------------------------------|
--------------------------------------|
--------------------------------------|

  Del glamour y el disfras
------10----------10----------10----------10------|
--10------------------------------10----------11--|
----------11--11------11--11----------------------|
--------------------------------------12----------|
--------------------------------------------------|
--------------------------------------------------|

  No nos detiene el que diran      No debes dejarme atrás

-----7-----7--------7--7---------|------9------9----------9--|
--------------8--8--------8------|----------------11---------|
--9-----9--------------------9---|--11-----11---------11-----|
---------------------------------|---------------------------|
-----------------------------10--|--9------------------------|
---------------------------------|---------------------------|


----------------------------------------------------------------------
----------------------------------------------------------------------


(03:51)

Guitarra 3 (Eléctrica)

Las tintas del libro

-------------------14p13--14~~~~~~-----|
---------------15--15p14--15~~~~~~-----|
---------------16----------------------|
---------------------------------------|
---------------------------------------|
---------------------------------------|

   Escritas se quedaran

---------------------14p13--14~~~~~~-----|
-----------------14--14p13--14~~~~~~-----|
-----------------15----------------------|
-----------------------------------------|
-----------------------------------------|
-----------------------------------------|

  Registrando en la vida

--------------------------12p11--12~~~~~~------|
----------------------14--14p13--14~~~~~~------|
----------------------14-----------------------|
-----------------------------------------------|
-----------------------------------------------|
-----------------------------------------------|

   Un secreto confidencial
------------------------12p11--12~~~~~~-----|
--------------------12--12p11--12~~~~~~-----|
--------------------13----------------------|
--------------------------------------------|
--------------------------------------------|
--------------------------------------------|

   Lastima que es un sueño
------------------10p9---10~~~~~~-----|
--------------12--12p10--12~~~~~~-----|
--------------12----------------------|
--------------------------------------|
--------------------------------------|
--------------------------------------|

   No quiero despertar

----------------10p9--10~~~~~~--|
------------10--10p9--10~~~~~~--|
------------11------------------|
--------------------------------|
--------------------------------|
--------------------------------|


 Tu bien sabes que me harias feliz              si tu fueras para mi

-----------------------------------------------|       ---------
-----------------------12p10--12-------14^p12--|       --14-----
-------------------12--12p11--12-------14^p12--|       --15-----
-------------------14--------------------------|       ---------
-----------------------------------------------|       ---------
-----------------------------------------------|       ---------


----------------------------------------------------------------------
----------------------------------------------------------------------


(04:15)


------------|-------------------------------|-------------------|
------10/12-|-h15-10-12--------------7------|-------------------|
-4/11-------|-----------109-----7-9----7h8-|------4/74--------|
------------|-------------------------------|-8-----------7h84-|
------------|-------------------------------|-------------------|
------------|-------------------------------|-------------------|

---------------------------------|------?----------------------7---10h12-|
-----7---------------7-----------|-10h12--10h12h107-10-8h9------7-------|
-7/9---7h8-------7/9---7h8-------|---------------------------------------|
x----------98-9-----------98-9-|---------------------------------------|
---------------------------------|---------------------------------------|
---------------------------------|---------------------------------------|

-10-(10)-12po107-------10-----------------|------10---------------------|
------------------10h12----(10)-12h108-x--|-----------------------------|
-------------------------------------------|-9h11----9h11po9-7-76-7-----|
-----------------------------------------x-|-----------------------------|
-------------------------------------------|-----------------------------|
-------------------------------------------|-----------------------------|

-----------------------------------------------|
-----7h8-(7)-8po7-------7h8-(7)h8-(7)h8po7-----|
-7/9--------------97-9--------------------97-|
-----------------------------------------------|
-----------------------------------------------|
-----------------------------------------------|

------------------7---------------------|
------7-10------7-----------------------|
-9h11------9h11-----(9)h11po97-9h11----|
----------------------------------------|
----------------------------------------|
----------------------------------------|

------------------7------7-7---------------|
------7-10------7--------7-7---------------|
-9h11------9h11-----9h11-----9h11po97-97-|
-------------------------------------------|
-------------------------------------------|
-------------------------------------------|

---------------|------------------------------------------|
---------------|----7h10po7-5-7--------10h12-(10)h12-10-7-|
-11/19---------|--x-------------7h8-----------------------|
---------------|-x------------------9---------------------|
---------------|x-----------------------------------------|
---------------|------------------------------------------|

-------10---------------------|--------------12----------------|
-10/12----10-12-11-10-9/17----|-----12-15h16----15-1715-1715-|
----------------------------14|h16-----------------------------|
------------------------------|--------------------------------|
------------------------------|--------------------------------|
------------------------------|--------------------------------|

-------15-16-17-17h19-----------------------------|
-17/19----------------(17)h19po17-15----17--1715-|
--------------------------------------------------|
--------------------------------------------------|
--------------------------------------------------|
--------------------------------------------------|

--------17-17------------------------------|
-17h19--------(17)h19po17-15-----17--1715-|
-------------------------------------------|
-------------------------------------------|
-------------------------------------------|
-------------------------------------------|

--------17-17-------------------------------------|
-17h19--------(17)h19p17-(17)h19---(17)h19po17-15-|
--------------------------------------------------|
--------------------------------------------------|
--------------------------------------------------|
--------------------------------------------------|

------17-17---------------------------------------|
-? ?--------(17)h19po17-(17)h19----(17)h19po1715-|
--------------------------------------------------|
--------------------------------------------------|
--------------------------------------------------|
--------------------------------------------------|

-----------------10-------10----------|---------------------|
-14h15-----13h15----13h15-------------|---11----------------|
-----------------------------117-----|---------------------|
----------------------------------9-8-|---------------------|
--------------------------------------|---------------------|
--------------------------------------|---------------------|

------------------------------------------------------------------------
-17h19--(17)h19-(17)h18-(17)h18-(17)h18-(17)h18-(17)h18po17-(17)h18po17-
------------------------------------------------------------------------
------------------------------------------------------------------------
------------------------------------------------------------------------
------------------------------------------------------------------------

-------------------------|---------------------------------|
-17-17-1715----17-15/16-|---------------------------------|
-------------16----------|-16-----14-----------------14--?-|
-------------------------|-----------161412-14/16--------|
-------------------------|---------------------------------|

-7--------------------------------|----7----------------------------|
---7-10---7-----------------------|------10-------------------------|
--------9---7-9---7---------------|---------11-(9)h11po9-7--------7-|
----------------9-----7-----------|-7-------------------------------|
--------------------9---97-5-7/9-|---------------------------------|
----------------------------------|---------------------------------|

---------------------|------------------9---|
---------------------|---------11-12--------|
-9-----9--11-----12--|-11-------------------|
---------------------|----------------------|
---------------------|----------------------|
---------------------|----------------------|


----------------------------------------------------------------------
----------------------------------------------------------------------


SOLO
                         ~~~~~~
-----------------7--|--9b(10)-----------------------------|
----------7^h10-----|----------------~~-------------------|
--9b(11)------------|----------9^h11^p9--7--9--9b(11)--7--|
--------------------|-------------------------------------|
--------------------|-------------------------------------|
--------------------|-------------------------------------|

---------------------------------|
---------------------------------|
----~~~----------------~~~-------|
--7b(8)--9--9^p8^p7--7b(8)r(7)--|
---------------------------------|
---------------------------------|

---------------------------------------------------------|
---------------------------------------------------------|
--7--9--9b(11)--7-------~~--7--9--9b(11)--7--------------|
-------------------9^p8^h9-------------------9^p7^h9^p7--|
---------------------------------------------------------|
---------------------------------------------------------|

-----------7--10--7-------------~~~~~--7-----10b(12)^^^
--10b(12)------------10^p7^h10--8b(9)-----7-----------|
------------------------------------------------------|
------------------------------------------------------|
------------------------------------------------------|
------------------------------------------------------|

        .
^^--10--10b(12)r(10)--7---------------10--------------(10)X--(10)X--|
-------------------------10--10b(12)------(12)r10--8----------------|
--------------------------------------------------------------------|
--------------------------------------------------------------------|
--------------------------------------------------------------------|
--------------------------------------------------------------------|

----------10------------------------|
------------------------------~-----|
--9b(11)------(11)r9^p7--7/6--7--7^^^
------------------------------------|
------------------------------------|
------------------------------------|

---------------------------------------------------------------------|
----------------------------------------  PH  --------------------~--|
^h9/12--11b(12)r11--9------9--11b(12)--11b(12)--11b(12)r11--9--7--9--|
-----------------------12--------------------------------------------|
---------------------------------------------------------------------|
---------------------------------------------------------------------|

-------------------------7-------------------|
----------7--10-------------7--------~~~~~~--|
--9b(11)---------9b(11)--------9^p7--9b(11)--|
---------------------------------------------|
---------------------------------------------|
---------------------------------------------|

------------------------7----------7---------------------------------|
---------7--10------------------------7----------7-------------------|
-9b(11)---------9b(11)-----9b(11)--------9b(11)-----(11)r9^p7^h9^p7--|
---------------------------------------------------------------------|
---------------------------------------------------------------------|
---------------------------------------------------------------------|

----------------|--------------------------------------------------|
--~~~~~~--(7)/--|--9b(10)(then release 1/4)-----7------------------|
--9b(11)--------|----------------------------9-----7(bend up 1/4)--|
----------------|--------------------------------------------------|
----------------|--------------------------------------------------|
----------------|--------------------------------------------------|

--------------------------7------------------10----------------------|
-----10b(12)r10--10b(12)-----10^p7--10b(12)------10--12--11--10--9/--|
---------------------------------------------------------------------|
--9------------------------------------------------------------------|
---------------------------------------------------------------------|
---------------------------------------------------------------------|

-------------------12---------------17-----------------------|
-----------12--15------15--17b(19)------(19)r17--15--17--15--|
--14b(16)----------------------------------------------------|
-------------------------------------------------------------|
-------------------------------------------------------------|
-------------------------------------------------------------|

-----------14--16--17--17b(19)-----------~~--------------|
--17b(19)-----------------------(19)r17--15--17--17^p15--|
---------------------------------------------------------|
---------------------------------------------------------|
---------------------------------------------------------|
---------------------------------------------------------|

-----------17--17-----------~~~~~~~-------------------|
--17b(19)----------(19)r17--17b(19)--(19)r17^p15^h17--|
------------------------------------------------------|
------------------------------------------------------|
------------------------------------------------------|
------------------------------------------------------|

-----------17--17-----------~~~~~~~--14^^^^^^^^--17b(19)^^|
--17b(19)----------(19)r17--17b(19)-----------------------|
-------------------------------------19^p18^p16-----------|
----------------------------------------------------------|
----------------------------------------------------------|
----------------------------------------------------------|

^^(19)--------------------------------------------|------|
-----------------12-----------12------------------|--~~--|
--------15b(16)------15b(16)----------------------|--15--|
-----------------------------------1612----------|------|
------------------------------------------14--13--|------|
--------------------------------------------------|------|

(bend del 12 al 14 y release gradualmente sobre las siguientes 9 notas

-12b(14)r(14)r(14)r(14)r(14)r(13)r(13)r(13)r(13)r12--12^p10-----12--10-|
------------------------------------------------------------12---------|
-----------------------------------------------------------------------|
-----------------------------------------------------------------------|
-----------------------------------------------------------------------|
-----------------------------------------------------------------------|

----------------------------------------------------|
--12--10----------------------------10-------------|
----------(11)r9------9------9--11-------7--9b(11)--|
------------------12-----12-------------------------|
----------------------------------------------------|
----------------------------------------------------|

-----------------------------------------------------------|
--15^p12--14^p10--12^p8--10^p7--8--------------------------|
--------------------------------7--------------------------|
--16^p12--14^p11--12^p9--11^p7--9--0^h4-----------------0--|
-----------------------------------------5^h7^p5-----------|
--------------------------------------------------5^h7-----|

                                                     ~~  ~~  ~~
--14--12^p10--10^p9--10-~--|--~--~--~~--~~--|--~~--9---10--12--|
--15--10^^^^---------7--7--|--8--8--10--12--|--11--11--12--14--|
--14--11^^^^--11^p9--7--7--|--9--9--11--12--|--11--------------|
---------------------------|----------------|------------------|
---------------------------|----------------|------------------|
---------------------------|----------------|------------------|

--14--10------14--10------14--10------14--10------14--10-------|
--12--12--12--12--12--12--12--12--12--12--12--12--12--12--12--|
---------------------------------------------------------------|
---------------------------------------------------------------|
---------------------------------------------------------------|
---------------------------------------------------------------|
                                   ~~
--12--9-------12--9-------12--9---18--|
--11--11--11--11--11--11--11--11--19--|
--------------------------------------|
--------------------------------------|
--------------------------------------|
--------------------------------------|

--12--9-------12--9-------12--9-------12--9-------12--9--------|
--10--10--10--10--10--10--10--10--10--10--10--10--10--10--10--|
---------------------------------------------------------------|
---------------------------------------------------------------|
---------------------------------------------------------------|
---------------------------------------------------------------|
                               ~~
--10--7-----10--7-----10--7--16--|
--9---9--9--9---9--9--9---9--17--|
---------------------------------|
---------------------------------|
---------------------------------|
---------------------------------|

--10--7-----10--7-----10--7-----10--7-----10--7-----|
--8---8--8--8---8--8--8---8--8--8---8--8--8---8--8--|
----------------------------------------------------|
----------------------------------------------------|
----------------------------------------------------|
----------------------------------------------------|
                               ~~
--10--5-----10--5-----10--5--14--|
--7---7--7--7---7--7--7---7--15--|
---------------------------------|
---------------------------------|
---------------------------------|
---------------------------------|

-----------------------------------------------------|
--12--8-----12--8-----12--8-----12--8-----12--8------|
--9---9--9--9---9--9--9---9--9--9---9--9--9---9--9--|
-----------------------------------------------------|
-----------------------------------------------------|
-----------------------------------------------------|

----------------------------------~~--|
--14--11------14--11------14--11--14--|
--11--11--11--11--11--11--11--11--14--|
--------------------------------------|
--------------------------------------|
--------------------------------------|

--14--10------14--10------14--10------14--10------14--10-------|
--12--12--12--12--12--12--12--12--12--12--12--12--12--12--12--|
---------------------------------------------------------------|
---------------------------------------------------------------|
---------------------------------------------------------------|
---------------------------------------------------------------|
                                    ~~
--12--9-------12--9-------12--9---18--|
--11--11--11--11--11--11--11--11--19--|
--------------------------------------|
--------------------------------------|
--------------------------------------|
--------------------------------------|

--12--9-------12--9-------12--9-------12--9-------12--9--------|
--10--10--10--10--10--10--10--10--10--10--10--10--10--10--10--|
---------------------------------------------------------------|
---------------------------------------------------------------|
---------------------------------------------------------------|
---------------------------------------------------------------|
                               ~~
--10--7-----10--7-----10--7--16--|
--9---9--9--9---9--9--9---9--17--|
---------------------------------|
---------------------------------|
---------------------------------|
|---------------------------------|

--10--7-----10--7-----10--7-----10--7-----10--7-----|
--8---8--8--8---8--8--8---8--8--8---8--8--8---8--8--|
----------------------------------------------------|
----------------------------------------------------|
----------------------------------------------------|
----------------------------------------------------|
                               ~~
--10--5-----10--5-----10--5--14--|
--7---7--7--7---7--7--7---7--15--|
---------------------------------|
---------------------------------|
---------------------------------|
---------------------------------|

-----------------------------------------------------|
--12--8-----12--8-----12--8-----12--8-----12--8------|
--9---9--9--9---9--9--9---9--9--9---9--9--9---9--9--|
-----------------------------------------------------|
-----------------------------------------------------|
-----------------------------------------------------|

----------------------------------~~--|
--14--11------14--11------14--11--14--|
--11--11--11--11--11--11--11--11--14--|
--------------------------------------|
--------------------------------------|
--------------------------------------|


----------------------------------------------------------------------
----------------------------------------------------------------------


Esta ultima parte va dos veces

-107---107---107---107---107-----|
------7------7------7------7------75-|
--------------------------------------|
--------------------------------------|
--------------------------------------|
--------------------------------------|

-96---96---96-12/14---------|-95---95---95---95---95-------|
-----7-----7-------------------|-----5-----5-----5-----5-----5-----|
-------------------------------|-----------------------------------|
-------------------------------|-----------------------------------|
-------------------------------|-----------------------------------|
-------------------------------|-----------------------------------|

-74---74---74---10/12--------|-73---73---73---73---73----|
-----5-----5-----5--------------|-----3-----3-----3-----3-----3--|
--------------------------------|--------------------------------|
--------------------------------|--------------------------------|
--------------------------------|--------------------------------|
--------------------------------|--------------------------------|

-52---52---52--8/10-------|-30---30---30---30---30---|
-----3-----3-----------------|-----0-----0-----0-----0-----0-|
-----------------------------|-------------------------------|
-----------------------------|-------------------------------|
-----------------------------|-------------------------------|
-----------------------------|-------------------------------|

-62---62---62--7/9-------------|
-----2-----2----------------------|
----------------------------------|
----------------------------------|
----------------------------------|

            
            
Suggest correction
Creating personal tab
Creating personal tab
You can edit any tab online and save it as your Personal.

You can edit, replace or remove any tab part or add personal notes – all changes will be seen only by you.

Personal tabs can be accessed anytime from any device, even offline.
Learn more »
Give kudos to tab author, rate the tab!
1 2 3 4 5
comments
print report bad tab
guest
Wanna post a correction for this tab? Suggest correction