Oops, an error
Loading. Please wait.

No Tengo Tiempo tab

version 1
version 1

Whole song

179 views 3 this week
no commentswrite comment
1 2 3 4 5
3 more votes to show rating
add to favorites
×
Save as Personal and add changes to this tab that will be seen only by you. Learn more ›
×
You can save this tab as Personal to edit and correct it or add notes. All changes will be seen only by you. Learn more »
launch autoscroll
font size
0
reset
how to read this tab
guitar tuner
edit
Autoscroll
slow
fast
+/-
esc
set tempo
stop
Esta es una excelente rola de rock mexicano espero la disfruten

NOTA: esta tablatura tiene algunas correcciones de la que se
encuentra en esta pagina espero que estén bien.

INTRO (C, Em, Am, G)
E|-------------------------|
B|-------------------------|
G|-------------------------|
D|-------------------------|
A|------0--2---------------|
E|---3---------------------|

Este es un pequeño arreglo de lo que hace el sax.
Repítelo dos veces
e|--------------------------------------------------------------------------------------
B|6--8---8--6--8--6--8--6----5--6--8---8--6--8--6--8--6---5--6--8--8--6--8--6--8--6--5-8
G|--------------------------------------------------------------------------------------
D|--------------------------------------------------------------------------------------
A|--------------------------------------------------------------------------------------
E|--------------------------------------------------------------------------------------

------------------------------------------|-con esto termina en la segunda repetición--|
--6--5--8--8--6--8--6--8--6--8--6---5--8--|--6--5--------------------------------------|
------------------------------------------|--------------------------------------------|
------------------------------------------|--------------------------------------------|
------------------------------------------|--------------------------------------------|

C                     Em
Cabalgo sobre sueños, innecesarios y rotos
Am                  G
prisionero iluso de esta selva cotidiana.
F                 Am
Y como hoja seca, que vaga en el viento,
D                 G
Vuelo imaginario, sobre historias de concreto.

C                 Em
Navego en el mar, de las cosas exactas,
Am                          G
muy clavado en momentos, de semánticas gastadas.
F                         Am
Y cual si fuera una nube, esculpida sobre el cielo,
D                    G
dibujo insatisfecho, mis huellas en el invierno.

        C
Ya que yo,
                           Em
no tengo tiempo de cambiar mi vida,
Am                                 G
la maquina me ha vuelto una sombra borrosa.
F                                    Am
Y aunque soy la misma tuerca que han negado tus ojos
D                              G
se que aun tengo tiempo para atracar en un puerto.

Esto es lo que hace el Sax repítelo dos veces
e|--------------------------------------------------------------------------------------
B|6--8---8--6--8--6--8--6----5--6--8---8--6--8--6--8--6---5--6--8--8--6--8--6--8--6--5-8
G|--------------------------------------------------------------------------------------
D|--------------------------------------------------------------------------------------
A|--------------------------------------------------------------------------------------
E|--------------------------------------------------------------------------------------

------------------------------------------|-con esto termina en la segunda repetición--|
--6--5--8--8--6--8--6--8--6--8--6---5--8--|--6--5--------------------------------------|
------------------------------------------|--------------------------------------------|
------------------------------------------|--------------------------------------------|
------------------------------------------|--------------------------------------------|

C                  Em
Camino automático, en una alfombra de estatuas,
Am                      G
masticando en mi mente las verdades más sabidas.
F                         Am
Y como lobo salvaje, que a perdido su camino
D                             G
He llenado mis bolsillos, con escombros del destino

        C                     Em
Sabes bien que: manejo implacable, mi nave cibernética,
Am                     G
entre aquel laberinto, de los planetas muertos.
F                         Am
Y cual si fuera la espuma de un anuncio de cerveza
D                          G
Una marca me ha vendido ya la forma de mi cabeza.

           C                          Em
Ya que yo, no tengo tiempo de cambiar mi vida
Am                                 G
la maquina me ha vuelto una sombra borrosa.
F                                    Am
Y aunque soy la misma tuerca que han negado tus ojos
D                              G
se que aun tengo tiempo para atracar en un puerto.

 Para el final se repite dos veces
e|--------------------------------------------------------------------------------------
B|6--8---8--6--8--6--8--6----5--6--8---8--6--8--6--8--6---5--6--8--8--6--8--6--8--6--5-8
G|--------------------------------------------------------------------------------------
D|--------------------------------------------------------------------------------------
A|--------------------------------------------------------------------------------------
E|--------------------------------------------------------------------------------------

------------------------------------------|
--6--5--8--8--6--8--6--8--6--8--6---5--8--|
------------------------------------------|
------------------------------------------|
------------------------------------------|

Esta es mi primer tablatura espero les guste y también la disfruten,
si tiene errores háganmelo saber por favor (pero no sean tan crueles soy novato)
También va dedicada a mi familia que me ha apoyado en la música y en todo lo demás
y a dos personas muy especiales a Trini y Belén del CB 9 T/m y a todos mis amigos.
                                 GRACIAS

            
            
Suggest correction
Creating personal tab
Creating personal tab
You can edit any tab online and save it as your Personal.

You can edit, replace or remove any tab part or add personal notes – all changes will be seen only by you.

Personal tabs can be accessed anytime from any device, even offline.
Learn more »
Give kudos to tab author, rate the tab!
1 2 3 4 5
comments
print report bad tab
guest
Wanna post a correction for this tab? Suggest correction