Oops, an error
Loading. Please wait.

Thats What Makes You Mine tab

181 views 9 this week
no commentswrite comment
1 2 3 4 5
3 more votes to show rating
add to favorites
×
Save as Personal and add changes to this tab that will be seen only by you. Learn more ›
×
You can save this tab as Personal to edit and correct it or add notes. All changes will be seen only by you. Learn more »
launch autoscroll
font size
0
reset
how to read this tab
guitar tuner
edit
Autoscroll
slow
fast
+/-
esc
set tempo
stop
Author
Difficulty
About this tab version
It's the first tab of this song original by me. Was this info helpful? Yes No
[Intro]

Guitar 1

e|---------|---------|----------|-----------|------------|--------|-----------------|
B|-----0---|---------|------0---|-----------|--------0---|--------|------0----------|
G|-------0-|-------0-|--------0-|-------0---|----------0-|------0-|--------0--------|
D|---0-----|-----0---|----0-----|---------0-|------0-----|----0---|----0------------|
A|---------|--2------|-3--------|--2h3------|------------|--2-----|--3--------------|
E|3--------|---------|----------|-----------|---3--------|--------|-----------------|

e|-----------|----------------------------------------------------------------|
B|-----------|----------------------------------------------------------------|
G|-----0-----|----------------------------------------------------------------|
D|-------0---|----------------------------------------------------------------|
A|-2h3-------|----------------------------------------------------------------|
E|-----------|----------------------------------------------------------------|


[Verse]

Guitar 1
e|-------------------|
B|-------------------|
G|-------------------|
D|-------------------|
A|---2-3-----2--2h3--|
E|-3------3----------|

Guitar 2
e|----------------------------|-----------------------------------------------|
B|----------------------------|-----------------------------------------------|
G|-7h9--7-------5-4-----2--0--|---7h9--7------5-4--4h5------------------------|
D|---------9---------5--------|-----------9-----------------------------------|
A|----------------------------|-----------------------------------------------|
E|----------------------------|-----------------------------------------------|

I know you think love songs are cheesy
You said your wedding dress won't be in white
You're not one to make things easy
Cuz when you're wrong you still know that you're right

Guitar 1 same as intro
e|---------|---------|----------|-----------|------------|--------|-----------------|
B|-----0---|---------|------0---|-----------|--------0---|--------|------0----------|
G|-------0-|-------0-|--------0-|-------0---|----------0-|------0-|--------0--------|
D|---0-----|-----0---|----0-----|---------0-|------0-----|----0---|----0------------|
A|---------|--2------|-3--------|--2h3------|------------|--2-----|--3--------------|
E|3--------|---------|----------|-----------|---3--------|--------|-----------------|

e|-----------|----------------------------------------------------------------|
B|-----------|----------------------------------------------------------------|
G|-----0-----|----------------------------------------------------------------|
D|-------0---|----------------------------------------------------------------|
A|-2h3-------|----------------------------------------------------------------|
E|-----------|----------------------------------------------------------------|
Guitar 2
e|----------------------------|-----------------------------------------------|
B|----------------------------|-----------------------------------------------|
G|-7h9--7-------5-4-----2--0--|---7h9--7------5-4--4h5------------------------|
D|---------9---------5--------|-----------9-----------------------------------|
A|----------------------------|-----------------------------------------------|
E|----------------------------|-----------------------------------------------|

Said I'm not the type you fall for
But this trip is taking us so far
I never thought we'd be together
But now look at where we are

[Chorus]

Guitar 1
e|---------|---------|----------|-----------|------------|--------|-----------------|
B|-----0---|---------|------0---|-----------|--------0---|--------|------0----------|
G|-------0-|-------0-|--------0-|-------0---|----------0-|------0-|--------0--------|
D|---0-----|-----0---|----0-----|---------0-|------0-----|----0---|----0------------|
A|---------|--2------|-3--------|--2h3------|------------|--2-----|--3--------------|
E|3--------|---------|----------|-----------|---3--------|--------|-----------------|

e|-----------|----------------------------------------------------------------|
B|-----------|----------------------------------------------------------------|
G|-----0-----|----------------------------------------------------------------|
D|-------0---|----------------------------------------------------------------|
A|-2h3-------|----------------------------------------------------------------|
E|-----------|----------------------------------------------------------------|

Guitar 2 alternate with Guitar 1
e|----------------------------|-----------------------------------------------|
B|----------------------------|-----------------------------------------------|
G|-7h9--7-------5-4-----2--0--|---7h9--7------5-4--4h5------------------------|
D|---------9---------5--------|-----------9-----------------------------------|
A|----------------------------|-----------------------------------------------|
E|----------------------------|-----------------------------------------------|

We just don't make sense
We don't work on paper
We're so not right
But that's what makes you mine

Guitar 1
e|-------------------|
B|-------------------|
G|-------------------|
D|-------------------|
A|---2-3-----2--2h3--|
E|-3------3----------|

Guitar 2
e|----------------------------|-----------------------------------------------|
B|----------------------------|-----------------------------------------------|
G|-7h9--7-------5-4-----2--0--|---7h9--7------5-4--4h5------------------------|
D|---------9---------5--------|-----------9-----------------------------------|
A|----------------------------|-----------------------------------------------|
E|----------------------------|-----------------------------------------------|

That's what makes you mine.. That's what makes you mine

[Verse 2 same as Verse 1]
Guitar 1
e|---------|---------|----------|-----------|------------|--------|-----------------|
B|-----0---|---------|------0---|-----------|--------0---|--------|------0----------|
G|-------0-|-------0-|--------0-|-------0---|----------0-|------0-|--------0--------|
D|---0-----|-----0---|----0-----|---------0-|------0-----|----0---|----0------------|
A|---------|--2------|-3--------|--2h3------|------------|--2-----|--3--------------|
E|3--------|---------|----------|-----------|---3--------|--------|-----------------|

e|-----------|----------------------------------------------------------------|
B|-----------|----------------------------------------------------------------|
G|-----0-----|----------------------------------------------------------------|
D|-------0---|----------------------------------------------------------------|
A|-2h3-------|----------------------------------------------------------------|
E|-----------|----------------------------------------------------------------|
Guitar 2
e|----------------------------|-----------------------------------------------|
B|----------------------------|-----------------------------------------------|
G|-7h9--7-------5-4-----2--0--|---7h9--7------5-4--4h5------------------------|
D|---------9---------5--------|-----------9-----------------------------------|
A|----------------------------|-----------------------------------------------|
E|----------------------------|-----------------------------------------------|

You're not a typical kind of beauty
And you're always dressing down to spite
You only go to indie movies
And you hate it when the story turns out right
You make a scene whenever you want to
No surprise when they all stop and stare
You never care what people say about you
All they get is a finger in the air

[Chorus same]
Guitar 1
e|---------|---------|----------|-----------|------------|--------|-----------------|
B|-----0---|---------|------0---|-----------|--------0---|--------|------0----------|
G|-------0-|-------0-|--------0-|-------0---|----------0-|------0-|--------0--------|
D|---0-----|-----0---|----0-----|---------0-|------0-----|----0---|----0------------|
A|---------|--2------|-3--------|--2h3------|------------|--2-----|--3--------------|
E|3--------|---------|----------|-----------|---3--------|--------|-----------------|

e|-----------|----------------------------------------------------------------|
B|-----------|----------------------------------------------------------------|
G|-----0-----|----------------------------------------------------------------|
D|-------0---|----------------------------------------------------------------|
A|-2h3-------|----------------------------------------------------------------|
E|-----------|----------------------------------------------------------------|

Guitar 2 alternate with Guitar 1
e|----------------------------|-----------------------------------------------|
B|----------------------------|-----------------------------------------------|
G|-7h9--7-------5-4-----2--0--|---7h9--7------5-4--4h5------------------------|
D|---------9---------5--------|-----------9-----------------------------------|
A|----------------------------|-----------------------------------------------|
E|----------------------------|-----------------------------------------------|

We just don't make sense
We don't work on paper
We're so not right          C          D    Bm
But that's what makes you..mine [Strum Down]
Em                           C        D     Bm
That's what makes you (mine) mine
C/G                   C      D      Bm
That's what makes you mine
Em                    C      D     Em    C/G [Pause]
That's what makes you mine


[Bridge]

Guitar 1
e|---------|---------|----------|-----------|-----------|-------------------------|
B|-----0---|---------|------0---|-----------|-------0---|-------------------------|
G|-------0-|-------0-|--------0-|-------0---|---------0-|------0------------------|
D|---0-----|-----0---|----0-----|---------0-|-----0-----|----0--------------------|
A|---------|--2------|-3--------|--2h3------|-----------|--2-------3--------------|
E|3--------|---------|----------|-----------|--3--------|-------------------------|

It all seems so improbable
I never would have thought that you're the one for me
The definition of impossible
And I'm never gonna let you go  [Pause]

[Chorus]

Same x2

Guitar 1
e|---------|---------|----------|-----------|------------|--------|-----------------|
B|-----0---|---------|------0---|-----------|--------0---|--------|------0----------|
G|-------0-|-------0-|--------0-|-------0---|----------0-|------0-|--------0--------|
D|---0-----|-----0---|----0-----|---------0-|------0-----|----0---|----0------------|
A|---------|--2------|-3--------|--2h3------|------------|--2-----|--3--------------|
E|3--------|---------|----------|-----------|---3--------|--------|-----------------|

e|-----------|----------------------------------------------------------------|
B|-----------|----------------------------------------------------------------|
G|-----0-----|----------------------------------------------------------------|
D|-------0---|----------------------------------------------------------------|
A|-2h3-------|----------------------------------------------------------------|
E|-----------|----------------------------------------------------------------|

Guitar 2 alternate with Guitar 1
e|----------------------------|-----------------------------------------------|
B|----------------------------|-----------------------------------------------|
G|-7h9--7-------5-4-----2--0--|---7h9--7------5-4--4h5------------------------|
D|---------9---------5--------|-----------9-----------------------------------|
A|----------------------------|-----------------------------------------------|
E|----------------------------|-----------------------------------------------|

We just don't make sense
We don't work on paper
We're so not right
But that's what makes you mine
                          G           Cadd9  
But that's what makes you (mine)
                        G            Cadd9
Mine, that's what makes you mine


[Solo, chords G and Cadd9]

e|-------------------------------------------|--------------------------------|
B|-10b-10-8-10p8---10-8---10b-8--------------|-10b-10-8---10-8--10~~---12~~~~-|
G|---------------9---------------9--7~~-7~~--|----------9---------------------|
D|-------------------------------------------|--------------------------------|
A|-------------------------------------------|--------------------------------|
E|-------------------------------------------|--------------------------------|

e|-------------------------------------------|-----------------------10~~~---|
B|-10b-10-8-10p8---10-8---10b-8--------------|-10b-10-8---10-8--10~~---------|
G|---------------9---------------9--7~~-7~~--|----------9--------------------|
D|-------------------------------------------|-------------------------------|
A|-------------------------------------------|-------------------------------|
E|-------------------------------------------|-------------------------------|

e|-------------------------------------------|---------------------------10~-|
B|-10b-10-8-10p8---10-8---10b-8--------------|-10b-10-8---10-8--10~~-12~~----|
G|---------------9---------------9--7~~-7~~--|----------9--------------------|
D|-------------------------------------------|-------------------------------|
A|-------------------------------------------|-------------------------------|
E|-------------------------------------------|-------------------------------|

[Strum]
                          C         D      Bm
But that's what makes you mine
Em                    C     D     Bm
That's what makes you mine
G                     C     D     Bm
That's what makes you mine
Em                     C    D     Bm     C/G
That's what makes you mine

***********************************
| h   Hammer-on
| p   Pull-off
| b   Bend
************************************

            
            
Suggest correction
Creating personal tab
Creating personal tab
You can edit any tab online and save it as your Personal.

You can edit, replace or remove any tab part or add personal notes – all changes will be seen only by you.

Personal tabs can be accessed anytime from any device, even offline.
Learn more »
Give kudos to tab author, rate the tab!
1 2 3 4 5
comments
print report bad tab
guest
You may want to rate the tab now too:
select rating
Wanna post a correction for this tab? Suggest correction