Oops, an error
Loading. Please wait.

Rusty intro tab

version 1
version 1

Intro

  • Sounds better and easier with D string open and ad... Show more
  • If anyone can add in the bridge that would be awes... Show more

Whole song

5,743 views 18 this week
3 commentsread comments
1 2 3 4 5
x 7
add to favorites
×
Save as Personal and add changes to this tab that will be seen only by you. Learn more ›
×
You can save this tab as Personal to edit and correct it or add notes. All changes will be seen only by you. Learn more »
launch autoscroll
font size
0
reset
how to read this tab
guitar tuner
edit
Autoscroll
slow
fast
+/-
esc
set tempo
stop
Author
About this tab version
Sounds better and easier with D string open and added the last little twang at the end of each rift which I had missed. Was this info helpful? Yes No
e|---------------------------------------------------------------------------|
B|-3--5-----8--7--12-----3--5-----8--7--12----------------------------------------|
G|---------------------------------------------------------------------------|
D|-0--0-----0--0--0------0--0-----0--0--0--------------------------------------|
A|-2--3-----7--5--10-----2--3-----7--5--10----------------------------------------|
E|---------------------------------------------------------------------------|

e|---------------------------------------------------------------------------|
B|-3--5-----8--7--12----7--12-12---3/5--------------------------------------------|
G|---------------------------------------------------------------------------|
D|-0--0-----0--0--0-----0--0--0----0-----------------------------------------|
A|-2--3-----7--5--10----8--10-10---2/3--------------------------------------------|
E|---------------------------------------------------------------------------|

repeat as needed

            
            
Suggest correction
Creating personal tab
Creating personal tab
You can edit any tab online and save it as your Personal.

You can edit, replace or remove any tab part or add personal notes – all changes will be seen only by you.

Personal tabs can be accessed anytime from any device, even offline.
Learn more »
comments
print report bad tab
3 comments total.
0 reply
blockayye 10 Jun 01, 2016 01:01 AM

e|---------------------------------------------------------------------------|
B|-3--5-----8--7--12---------------------------------------------------------|
G|---------------------------------------------------------------------------|
D|-4--5-----9--7--12---------------------------------------------------------|
A|-2--3-----7--5--10---------------------------------------------------------|
E|---------------------------------------------------------------------------|

0 reply
zplatt 16 Oct 27, 2016 11:18 AM

If you want to play it like the studio recording you have to transpose it a half step down. Either tune the whole guitar a half step or change the position of the fingers by one fret lower. The transitions that blockayye posted are correct, just need to transpose it.

0 reply
nathan771 10 Jun 26, 2017 04:20 PM

Don't use the 10-12 it's too far away to sound good, the 5-7 one string lower is the same and right under where your fingers are

guest
You may want to rate the tab now too:
select rating
Wanna post a correction for this tab? Suggest correction