Oops, an error
Loading. Please wait.

Constantine bass

159 views 1 this week
no commentswrite comment
1 2 3 4 5
3 more votes to show rating
add to favorites
×
Save as Personal and add changes to this tab that will be seen only by you. Learn more ›
×
You can save this tab as Personal to edit and correct it or add notes. All changes will be seen only by you. Learn more »
launch autoscroll
font size
0
reset
guitar tuner
edit
Autoscroll
slow
fast
+/-
esc
set tempo
stop
Author
Song: Constantine
Artist: Hellfire
Album: Warnings (2009)
Notes: The '~' accompanied with the slide up to the higher F# during the
main riff after the first verse denotes trem picking or 16th notes.

You can listen to Hellfire at www.hellfire-metal.com


Intro: (0:00-0:48)

    H+Q         E E   H+Q         E E   H+Q         E E   H+Q         Q     
G|------------------|-----------------|-----------------|-----------------|
D|------------------|-----------------|-----------------|-----------------|
A|------------------|-----------------|-----------------|-----------------|
E|--7-----------7-5-|-7-----------7-5-|-3-----------5-3-|-2-----------0---|


    H+Q         E E   H+Q         E E   H+Q         E E   W
G|------------------|-----------------|-----------------|-----------------|
D|------------------|-----------------|-----------------|-----------------|
A|------------------|-----------------|-----------------|-----------------|
E|--7-----------7-5-|-7-----------7-5-|-3-----------5-3-|-2---------------|


    Q   E Q   E E E   Q   E Q   E E E   Q   E Q   E E E   Q   E Q   E E E x3
G|o-----------------|-----------------|-----------------|----------------o||
D|------------------|-----------------|-----------------|-----------------||
A|------------------|-----------------|-----------------|-----------------||
E|o-7---0-7---0-7-5-|-7---0-7---0-7-5-|-3---0-3---0-5-3-|-2---0-2---0-2-0o||


    Q   E Q   E E E   Q   E Q   E E E   Q   E Q   E E E   W   '2, 3, 4!'
G|o-----------------|-----------------|-----------------|----------------o|
D|------------------|-----------------|-----------------|-----------------|
A|------------------|-----------------|-----------------|-----------------|
E|o-7---0-7---0-7-5-|-7---0-7---0-7-5-|-3---0-3---0-5-3-|-2--------------o|



    Q   E Q   E E E   Q   E Q   E E E   Q   E Q   E E E   Q   E Q   E E E 
G|------------------|-----------------|-----------------|-----------------|
D|------------------|-----------------|-----------------|-------------7-8-|
A|--7-----5-----7-8-|-7-----5-----7-8-|-7-----5-----7-8-|-7-----5---------|
E|------0-----0-----|-----0-----0-----|-----0-----0-----|-----0-----0-----|


    Q   E Q   E E E   Q   E Q   E E E   Q   E Q   E E E   Q   E Q   E E E 
G|------------------|-----------------|-----------------|-------------9-10|
D|--7-----5-----7-8-|-7-----5-----7-8-|-7-----5-----7-8-|-7-----5---------|
A|------------------|-----------------|-----------------|-----------------|
E|------0-----0-----|-----0-----0-----|-----0-----0-----|-----0-----0-----|


    Q   E Q   E E E   Q   E Q   E E E   Q   E Q   E E E   Q   E Q   E E E 
G|--9-----7-----9-10|-9-----7-----9-10|-9-----7-----9-10|-9-----7-----1415|
D|------------------|-----------------|-----------------|-----------------|
A|------------------|-----------------|-----------------|-----------------|
E|------0-----0-----|-----0-----0-----|-----0-----0-----|-----0-----0-----|


    Q   E Q   E E E   Q   E Q   E E E   Q   E Q   E E E   W
G|--14----12----1415|-14----12----1415|-14----12----1415|-----------------|
D|------------------|-----------------|-----------------|-----------------|
A|------------------|-----------------|-----------------|-----------------|
E|------0-----0-----|-----0-----0-----|-----0-----0-----|-12\-------------|




Verse 1: (0:48-1:07)

'I walk these streets...'
    Q   E Q   E E E   Q   E Q   E E E   Q   E Q   E E E   Q   E Q   E E E 
G|------------------|-----------------|-----------------|-----------------|
D|------------------|-----------------|-----------------|-----------------|
A|--7-----5-----7-8-|-7-----5-----7-8-|-7-----5-----7-8-|-7-----5-----7-8-|
E|------0-----0-----|-----0-----0-----|-----0-----0-----|-----0-----0-----|


'Heal the weak...'
    Q   E Q   E E E   Q   E Q   E E E   Q   E Q   E E E   Q   E Q   E E E 
G|------------------|-----------------|-----------------|-----------------|
D|------------------|-----------------|-----------------|-------------7-8-|
A|--7-----5-----7-8-|-7-----5-----7-8-|-7-----5-----7-8-|-7-----5---------|
E|------0-----0-----|-----0-----0-----|-----0-----0-----|-----0-----0-----|


'Kill all evil...'
    Q   E Q   E E E   Q   E Q   E E E   Q   E Q   E E E   Q   E Q   E E E 
G|------------------|-----------------|-----------------|-------------9-10|
D|--7-----5-----7-8-|-7-----5-----7-8-|-7-----5-----7-8-|-7-----5---------|
A|------------------|-----------------|-----------------|-----------------|
E|------0-----0-----|-----0-----0-----|-----0-----0-----|-----0-----0-----|


'I've been through Hell...'
    Q   E Q   E E E   Q   E Q   E E E   Q   E Q   E E E   W
G|------------------|-----------------|-----------------|-----------------|
D|------------------|-----------------|-----------------|-----------------|
A|--7-----5-----7-8-|-7-----5-----7-8-|-7-----5-----7-8-|-----------------|
E|------0-----0-----|-----0-----0-----|-----0-----0-----|-12\-------------|




Main Riff: (1:07-1:36)

    Q   E Q   E E E   Q   E Q   E E E   Q   E Q   E E E   Q   E Q   E E E x2
G|o-----------------|-----------------|-----------------|----------------o||
D|------------------|-----------------|-----------------|-----------------||
A|------------------|-----------------|-----------------|-----------------||
E|o-7---0-7---0-7-5-|-7---0-7---0-7-5-|-3---0-3---0-5-3-|-2---0-2---0-2-0o||


    Q   E Q   E E E   Q   E Q   E E E   Q   E Q   E E E   Q   E Q   E E E
G|------------------|-----------------|-----------------|-----------------|
D|------------------|-----------------|-----------------|-----------------|
A|--4-----4-----4-2-|-4-----4-----4-2-|-------------2---|-----------------|
E|------2-----2-----|-----2-----2-----|-5---2-5---2---5-|-4---2-4---2-4-2-|


    Q   E Q   E E E   Q   E Q   E E E   W                 W
G|------------------|-----------------|-----------------|-----------------|
D|------------------|-----------------|-----------------|-----------------|
A|--4-----4-----4-2-|-4-----4---------|-----------------|-----------------|
E|------2-----2-----|-----2-----2-2---|-2---------------|-2/14~-----------|


    Q   E Q   E E E   Q   E Q   E E E   Q   E Q   E E E   Q   E Q   E E E 
G|------------------|-----------------|-----------------|-----------------|
D|------------------|-----------------|-----------------|-------------7-8-|
A|--7-----5-----7-8-|-7-----5-----7-8-|-7-----5-----7-8-|-7-----5---------|
E|------0-----0-----|-----0-----0-----|-----0-----0-----|-----0-----0-----|


    Q   E Q   E E E   Q   E Q   E E E   Q   E Q   E E E   W
G|------------------|-----------------|-----------------|-----------------|
D|--7-----5-----7-8-|-7-----5-----7-8-|-7-----5-----7-8-|-----------------|
A|------------------|-----------------|-----------------|-----------------|
E|------0-----0-----|-----0-----0-----|-----0-----0-----|-12\-------------|




Verse 2: (1:36-1:55)

'The streets at night...'
    Q   E Q   E E E   Q   E Q   E E E   Q   E Q   E E E   Q   E Q   E E E 
G|------------------|-----------------|-----------------|-----------------|
D|------------------|-----------------|-----------------|-----------------|
A|--7-----5-----7-8-|-7-----5-----7-8-|-7-----5-----7-8-|-7-----5-----7-8-|
E|------0-----0-----|-----0-----0-----|-----0-----0-----|-----0-----0-----|


'There is more here...'
    Q   E Q   E E E   Q   E Q   E E E   Q   E Q   E E E   Q   E Q   E E E 
G|------------------|-----------------|-----------------|-----------------|
D|------------------|-----------------|-----------------|-------------7-8-|
A|--7-----5-----7-8-|-7-----5-----7-8-|-7-----5-----7-8-|-7-----5---------|
E|------0-----0-----|-----0-----0-----|-----0-----0-----|-----0-----0-----|


'Now I'm cursed to try...'
    Q   E Q   E E E   Q   E Q   E E E   Q   E Q   E E E   Q   E Q   E E E 
G|------------------|-----------------|-----------------|-------------9-10|
D|--7-----5-----7-8-|-7-----5-----7-8-|-7-----5-----7-8-|-7-----5---------|
A|------------------|-----------------|-----------------|-----------------|
E|------0-----0-----|-----0-----0-----|-----0-----0-----|-----0-----0-----|


'Hell rose above...'
    Q   E Q   E E E   Q   E Q   E E E   Q   E Q   E E E   W
G|------------------|-----------------|-----------------|-----------------|
D|------------------|-----------------|-----------------|-----------------|
A|--7-----5-----7-8-|-7-----5-----7-8-|-7-----5-----7-8-|-----------------|
E|------0-----0-----|-----0-----0-----|-----0-----0-----|-12\-------------|




Main Riff: (1:55-2:14)

    Q   E Q   E E E   Q   E Q   E E E   Q   E Q   E E E   Q   E Q   E E E x2
G|o-----------------|-----------------|-----------------|----------------o||
D|------------------|-----------------|-----------------|-----------------||
A|------------------|-----------------|-----------------|-----------------||
E|o-7---0-7---0-7-5-|-7---0-7---0-7-5-|-3---0-3---0-5-3-|-2---0-2---0-2-0o||


    Q   E Q   E E E   Q   E Q   E E E   Q   E Q   E E E   Q   E Q   E E E
G|------------------|-----------------|-----------------|-----------------|
D|------------------|-----------------|-----------------|-----------------|
A|--4-----4-----4-2-|-4-----4-----4-2-|-------------2---|-----------------|
E|------2-----2-----|-----2-----2-----|-5---2-5---2---5-|-4---2-4---2-4-2-|


    Q   E Q   E E E   Q   E Q   E E E   Q   E Q   E E E   W
G|------------------|-----------------|-----------------|-----------------|
D|------------------|-----------------|-----------------|-----------------|
A|--4-----4-----4-2-|-4-----4-----4-2-|-------------2---|-----------------|
E|------2-----2-----|-----2-----2-----|-5---2-5---2---5-|-4---------------|




Bridge: (2:14-3:35)

    Q   E Q   E Q     Q   E Q   E Q     Q   E Q   E Q     Q   E Q   E E E x2
G|o-----------------|-----------------|-----------------|----------------o||
D|------------------|-----------------|-----------------|-----------------||
A|--4---4-4---4-4---|-4---4-4---4-4---|-4---4-4---4-4---|-2---2-2---2-4-6-||
E|o-----------------|-----------------|-----------------|----------------o||


    Q   E Q   E Q     Q   E Q   E Q     Q   E Q   E Q     Q   E Q   E E E x2
G|o-----------------|-----------------|-----------------|----------------o||
D|--4---4-4---4-4---|-4---4-4---4-4---|-4---4-4---4-4---|-2---2-2---2-4-6-||
A|------------------|-----------------|-----------------|-----------------||
E|o-----------------|-----------------|-----------------|----------------o||


    Q   E Q   E Q     Q   E Q   E Q     Q   E Q   E Q     Q   E Q   E E E x2
G|o-----------------|-----------------|-----------------|----------------o||
D|------------------|-----------------|-----------------|-----------------||
A|--4---4-4---4-4---|-4---4-4---4-4---|-4---4-4---4-4---|-2---2-2---2-4-6-||
E|o-----------------|-----------------|-----------------|----------------o||


    Q   E Q   E Q     Q   E Q   E Q     Q   E Q   E Q     Q   E Q   E E E
G|------------------|-----------------|-----------------|-----------------|
D|--4---4-4---4-4---|-4---4-4---4-4---|-4---4-4---4-4---|-2---2-2---2-4-6-|
A|------------------|-----------------|-----------------|-----------------|
E|------------------|-----------------|-----------------|-----------------|


    Q   E Q   E Q     Q   E Q   E Q     Q   E Q   E Q     W
G|------------------|-----------------|-----------------|-----------------|
D|--4---4-4---4-4---|-4---4-4---4-4---|-4---4-4---4-4---|-2---------------|
A|------------------|-----------------|-----------------|-----------------|
E|------------------|-----------------|-----------------|-----------------|


    E E E E E E Q     E E E E E E Q     E E E E E E Q     E E E E E E Q    x4
G|o-----------------|-----------------|-----------------|-----------------o||
D|------------------|-----------------|-----------------|------------------||
A|--0-0-0-0-0-0-5---|-0-0-0-0-0-0-----|-0-0-0-0-0-0-5---|------------------||
E|o-----------------|-------------3---|-----------------|-3-3-3-3-3-3-2---o||


    E E E E E E Q     E E E E E E Q     E E E E H                           
G|------------------|-----------------|-----------------|------------------|
D|------------------|-----------------|-----------------|------------------|
A|------------------|-----------------|-----------------|------------------|
E|--3-3-3-3-3-3-2---|-3-3-3-3-3-3-2---|-3-3-3-3-7-------|------------------|
PM: . . . . . .       . . . . . .       . . . .  



---------------------Wait 8 measures for keyboards-------------------------



    H+Q         E E   H+Q         E E   H+Q         E E   H+Q         Q     
G|------------------|-----------------|-----------------|-----------------|
D|------------------|-----------------|-----------------|-----------------|
A|------------------|-----------------|-----------------|-----------------|
E|--7-----------7-5-|-7-----------7-5-|-3-----------5-3-|-2-----------0---|


    H+Q         E E   H+Q         E E   H+Q         E E   W
G|------------------|-----------------|-----------------|-----------------|
D|------------------|-----------------|-----------------|-----------------|
A|------------------|-----------------|-----------------|-----------------|
E|--7-----------7-5-|-7-----------7-5-|-3-----------5-3-|-2---------------|


    Q   E Q   E E E   Q   E Q   E E E   Q   E Q   E E E   Q   E Q   E E E x3
G|o-----------------|-----------------|-----------------|----------------o||
D|------------------|-----------------|-----------------|-----------------||
A|------------------|-----------------|-----------------|-----------------||
E|o-7---0-7---0-7-5-|-7---0-7---0-7-5-|-3---0-3---0-5-3-|-2---0-2---0-2-0o||


    Q   E Q   E E E   Q   E Q   E E E   Q   E Q   E E E   W 
G|o-----------------|-----------------|-----------------|----------------o|
D|------------------|-----------------|-----------------|-----------------|
A|------------------|-----------------|-----------------|-----------------|
E|o-7---0-7---0-7-5-|-7---0-7---0-7-5-|-3---0-3---0-5-3-|-2--------------o|


    Q   E Q   E E E   Q   E Q   E E E   Q   E Q   E E E   Q   E Q   E E E 
G|------------------|-----------------|-----------------|-----------------|
D|------------------|-----------------|-----------------|-------------7-8-|
A|--7-----5-----7-8-|-7-----5-----7-8-|-7-----5-----7-8-|-7-----5---------|
E|------0-----0-----|-----0-----0-----|-----0-----0-----|-----0-----0-----|


    Q   E Q   E E E   Q   E Q   E E E   Q   E Q   E E E   W
G|------------------|-----------------|-----------------|-----------------|
D|--7-----5-----7-8-|-7-----5-----7-8-|-7-----5-----7-8-|-----------------|
A|------------------|-----------------|-----------------|-----------------|
E|------0-----0-----|-----0-----0-----|-----0-----0-----|-12\-------------|




Verse 3: (4:04-4:23)

'It comes again...'
    Q   E Q   E E E   Q   E Q   E E E   Q   E Q   E E E   Q   E Q   E E E 
G|------------------|-----------------|-----------------|-----------------|
D|------------------|-----------------|-----------------|-----------------|
A|--7-----5-----7-8-|-7-----5-----7-8-|-7-----5-----7-8-|-7-----5-----7-8-|
E|------0-----0-----|-----0-----0-----|-----0-----0-----|-----0-----0-----|


'He's dressed to kill...'
    Q   E Q   E E E   Q   E Q   E E E   Q   E Q   E E E   Q   E Q   E E E 
G|------------------|-----------------|-----------------|-----------------|
D|------------------|-----------------|-----------------|-------------7-8-|
A|--7-----5-----7-8-|-7-----5-----7-8-|-7-----5-----7-8-|-7-----5---------|
E|------0-----0-----|-----0-----0-----|-----0-----0-----|-----0-----0-----|


'An angel's wings...'
    Q   E Q   E E E   Q   E Q   E E E   Q   E Q   E E E   Q   E Q   E E E 
G|------------------|-----------------|-----------------|-------------9-10|
D|--7-----5-----7-8-|-7-----5-----7-8-|-7-----5-----7-8-|-7-----5---------|
A|------------------|-----------------|-----------------|-----------------|
E|------0-----0-----|-----0-----0-----|-----0-----0-----|-----0-----0-----|


'Eternal pain...'
    Q   E Q   E E E   Q   E Q   E E E   Q   E Q   E E E   W
G|------------------|-----------------|-----------------|-----------------|
D|------------------|-----------------|-----------------|-----------------|
A|--7-----5-----7-8-|-7-----5-----7-8-|-7-----5-----7-8-|-----------------|
E|------0-----0-----|-----0-----0-----|-----0-----0-----|-12\-------------|




Outro: (4:23-4:45)

    Q   E Q   E E E   Q   E Q   E E E   Q   E Q   E E E   Q   E Q   E E E x3
G|o-----------------|-----------------|-----------------|----------------o||
D|------------------|-----------------|-----------------|-----------------||
A|------------------|-----------------|-----------------|-----------------||
E|o-7---0-7---0-7-5-|-7---0-7---0-7-5-|-3---0-3---0-5-3-|-2---0-2---0-2-0o||


    H+Q         E E   H+Q         E E   H+Q         E E   H+Q         Q     
G|------------------|-----------------|-----------------|-----------------|
D|------------------|-----------------|-----------------|-----------------|
A|------------------|-----------------|-----------------|-----------------|
E|--7-----------7-5-|-7-----------7-5-|-3-----------5-3-|-2-----------0---|


   Ending
G|------------------|
D|--2---------------|
A|--2---------------|
E|--0---------------|

            
            
Suggest correction
Creating personal tab
Creating personal tab
You can edit any tab online and save it as your Personal.

You can edit, replace or remove any tab part or add personal notes – all changes will be seen only by you.

Personal tabs can be accessed anytime from any device, even offline.
Learn more »
Give kudos to tab author, rate the tab!
1 2 3 4 5
comments
print report bad tab
guest
You may want to rate the tab now too:
select rating
Wanna post a correction for this tab? Suggest correction