Oops, an error
Loading. Please wait.

United We Stand Divided We Fall bass

251 views 1 this week
no commentswrite comment
1 2 3 4 5
3 more votes to show rating
add to favorites
×
Save as Personal and add changes to this tab that will be seen only by you. Learn more ›
×
You can save this tab as Personal to edit and correct it or add notes. All changes will be seen only by you. Learn more »
launch autoscroll
font size
0
reset
guitar tuner
edit
Autoscroll
slow
fast
+/-
esc
set tempo
stop
Author
Difficulty
Song: United We Stand, Divided We Fall
Artist: Hellfire
Album: Warnings (2009)
Notes: I decided that tabbing the song in 4/4 with triplets would be easier
than tabbing straight 8ths in 12/8, so the spacing of the triplets in some 
sections are a little cramped, just watch the notation. In some sections the 
triplets appear differently than in others, so just listen to the song and 
watch the rhythmic dictation.

You can listen to Hellfire at www.hellfiremetal.com


Intro: (0:00-0:20)

    Q  Q              Q  Q              Q  Q              H     H         x4
G|------------------|-----------------|-----------------|-----------------||
D|o-----------------|-----------------|-----------------|----------------o||
A|o-8--8------------|-8--8------------|-8--8------------|-4-----6--------o||
E|------------------|-----------------|-----------------|-----------------||




Main Riff (0:20-0:30)

    Q  Q  T T T  Q    Q  Q T T T T T T  Q  Q  T T T  Q    Q   Q   Q   Q   x2
G|--------5-3-1--3--|------5-3-1-3-1-0|-------5-3-1--3--|-----6-------8---||
D|o-3--3------------|-3--3------------|-3--3------------|----------------o||
A|o-----------------|-----------------|-----------------|-4-------6------o||
E|------------------|-----------------|-----------------|-----------------||




Verse I (0:30-0:50)

  'Livining to fight...'
    W                 W                 W                 Q   Q   Q   Q   x4
G|------------------|-10--------------|-----------------|-----6-------8---||
D|o-----------------|-----------------|-----------------|----------------o||
A|o-8---------------|-----------------|-8---------------|-4-------6------o||
E|------------------|-----------------|-----------------|-----------------||




Main Riff (0:50-1:00)

    Q  Q  T T T  Q    Q  Q T T T T T T  Q  Q  T T T  Q    Q   Q   Q   Q   x2
G|--------5-3-1--3--|------5-3-1-3-1-0|-------5-3-1--3--|-----6-------8---||
D|o-3--3------------|-3--3------------|-3--3------------|----------------o||
A|o-----------------|-----------------|-----------------|-4-------6------o||
E|------------------|-----------------|-----------------|-----------------||




Verse II (1:00-1:20)

  'United we stand...'
    W                 W                 W                 Q   Q   Q   Q   x4
G|------------------|-10--------------|-----------------|-----6-------8---||
D|o-----------------|-----------------|-----------------|----------------o||
A|o-8---------------|-----------------|-8---------------|-4-------6------o||
E|------------------|-----------------|-----------------|-----------------||




Main Riff (1:20-1:46)

    Q  Q  T T T  Q    Q  Q T T T T T T  Q  Q  T T T  Q    Q   Q   Q   Q   x2
G|--------5-3-1--3--|------5-3-1-3-1-0|-------5-3-1--3--|-----6-------8---||
D|o-3--3------------|-3--3------------|-3--3------------|----------------o||
A|o-----------------|-----------------|-----------------|-4-------6------o||
E|------------------|-----------------|-----------------|-----------------||

    Q  Q   T T T Q    Q  Q T T T T T T  Q  Q  T T T  Q    Q   Q   Q   Q
G|--------10-8-6-3--|------12108-108-7|-------10-8-6-3--|-5---3---1---0---|
D|--8--8------------|-10-10-----------|-8--8------------|-----------------|
A|------------------|-----------------|-----------------|-----------------|
E|------------------|-----------------|-----------------|-----------------|

    Q  Q  T T T  Q    Q  Q T T T T T T  Q  Q  T T T  Q    Q   Q   Q   Q
G|--------5-3-1--3--|------5-3-1-3-1-0|-------5-3-1--3--|-----6-------8---|
D|--3--3------------|-3--3------------|-3--3------------|-----------------|
A|------------------|-----------------|-----------------|-4-------6-------|
E|------------------|-----------------|-----------------|-----------------|

    W+W                                 W+W
G|------------------|-----------------|-----------------|-----------------|
D|------------------|-----------------|-----------------|-----------------|
A|--6---------------|-----------------|-8---------------|-----------------|
E|------------------|-----------------|-----------------|-----------------|




Bridge Section (1:46-2:26)

G|------------------|-----------------|-----------------|-----------------|
D|------------------|-----------------|-----------------|-----------------|
A|------------------|-----------------|-----------------|-----------------|
E|------------------|-----------------|-----------------|-----------------|

    E E     E E       E E               E E     E E       W 
G|------------------|-----------------|-----------------|-----------------|
D|------------------|-----------------|-----------------|-----------------|
A|------------------|-----------------|-----------------|-----------------|
E|--1-1-----1-1-----|-1-1-------------|-1-1-----1-1-----|-1---------------|

    E E E E E E E E   E E E E E E E E   E E E E E E E E   E E E E E E E E x2
G|------------------|-----------------|-----------------|-----------------||
D|o-----------------|-----------------|-----------------|----------------o||
A|o-----------------|-----------------|-----------------|----------------o||
E|--1-1-x-x-1-1-x-x-|-1-1-x-x-4-4-3-3-|-1-1-x-x-1-1-x-x-|-1-1-x-x-4-4-3-3-||

  'They took you...'
    E E     E E       E E               E E     E E       E E     E E E E x4
G|------------------|-----------------|-----------------|-----------------||
D|o-----------------|-----------------|-----------------|----------------o||
A|o-----------------|-----------------|-----------------|----------------o||
E|--1-1-----1-1-----|-1-1-------------|-1-1-----1-1-----|-1-1-----4-4-3-3-||




Lead Riff (2:26-2:53)

    E E E E E E E E   E E E E E E E E   E E E E E E E E   E E E E E E E E x4
G|------------------|-----------------|-----------------|-----------------||
D|o-----------------|-----------------|-----------------|----------------o||
A|o-----------------|-----------------|-----------------|----------------o||
E|--1-1-x-x-1-1-x-x-|-1-1-x-x-4-4-3-3-|-1-1-x-x-1-1-x-x-|-1-1-x-x-4-4-3-3-||

    E E E E E E E E   Wx3                                                  
G|------------------|-10--------------|-----------------|-----------------|
D|------------------|-----------------|-----------------|-----------------|
A|------------------|-8---------------|-----------------|-----------------|
E|--1-1-x-x-1-1-x-x-|-----------------|-----------------|-----------------|




Pre-Solo Section (2:53-3:22)

G|------------------|-----------------|-----------------|-----------------|
D|------------------|-----------------|-----------------|-----------------|
A|------------------|-----------------|-----------------|-----------------|
E|------------------|-----------------|-----------------|-----------------|

   W                  W                 W                 W                
G|------------------|-----------------|-----------------|-----------------|
D|------------------|-----------------|-----------------|-----------------|
A|-8----------------|-4---------------|-----------------|-6---------------|
E|------------------|-----------------|-4---------------|-----------------|

   TTT TTT TTT Q      TTT TTT TTT Q     TTT TTT TTT Q     TTT TTT TTT Q   x4
G|------------------|-----------------|-----------------|-----------------||
D|------------------|-----------------|-----------------|-----------------||
A|o888-888-888-8----|-444-444-444-4---|-----------------|-666-666-666----o||
E|------------------|-----------------|-444-444-444-4---|-----------------||




Solo Backing Riff (3:22-3:40)

   TTT TTT TTT Q      TTT TTT TTT Q     TTT TTT TTT Q     TTT TTT TTT Q   x3
G|------------------|-----------------|-----------------|-----------------||
D|------------------|-----------------|-----------------|-----------------||
A|o888-888-888-8----|-444-444-444-4---|-----------------|-666-666-666----o||
E|------------------|-----------------|-444-444-444-4---|-----------------||

   TTT TTT TTT TTT    Q   Q   Q   Q
G|------------------|-10------10------|
D|------------------|-----------------|
A|-888-888-888-888--|-----8-------8---|
E|------------------|-----------------|




Main Riff (3:40-4:21)

    Q  Q  T T T  Q    Q  Q T T T T T T  Q  Q  T T T  Q    TTT TTT TTT Q  x2
G|--------5-3-1--3--|------5-3-1-3-1-0|-------5-3-1--3--|-653-531-310-1---||
D|o-3--3------------|-3--3------------|-3--3------------|----------------o||
A|o-----------------|-----------------|-----------------|----------------o||
E|------------------|-----------------|-----------------|-----------------||

    Q  Q  T T T  Q    Q  Q T T T T T T  Q  Q  T T T  Q    Q   Q   Q   Q   x2
G|--------5-3-1--3--|------5-3-1-3-1-0|-------5-3-1--3--|-----6-------8---||
D|o-3--3------------|-3--3------------|-3--3------------|----------------o||
A|o-----------------|-----------------|-----------------|-4-------6------o||
E|------------------|-----------------|-----------------|-----------------||

   Q  T T T  Q   Q    Q  T T T  Q   Q   Q  T T T  Q  Q    TTT  Q  TTT  Q  x2
G|------------------|-----------------|-----------------|-----------------||
D|o10-101010-10--8--|-10-101010-10--8-|-6--6-6-6--6--5--|-666--6--888--8-o||
A|o-----------------|-----------------|-----------------|----------------o||
E|------------------|-----------------|-----------------|-----------------||

   Q  T T T  Q   Q    Q  T T T  Q   Q   Q  T T T  Q  Q    TTT  Q  TTT  Q  x2
G|-10-101010-10--8--|-10-101010-10--8-|-6--6-6-6--6--5--|-666--6--888--8--||
D|o-----------------|-----------------|-----------------|----------------o||
A|o-----------------|-----------------|-----------------|----------------o||
E|------------------|-----------------|-----------------|-----------------||




Verse II (4:21-4:41)

  'Fall to the earth...'
    W                 W                 W                 Q   Q   Q   Q   x4
G|------------------|-10--------------|-----------------|-----6-------8---||
D|o-----------------|-----------------|-----------------|----------------o||
A|o-8---------------|-----------------|-8---------------|-4-------6------o||
E|------------------|-----------------|-----------------|-----------------||




Main Riff (4:41-5:06)

    Q  Q  T T T  Q    Q  Q T T T T T T  Q  Q  T T T  Q    Q   Q   Q   Q   x2
G|--------5-3-1--3--|------5-3-1-3-1-0|-------5-3-1--3--|-----6-------8---||
D|o-3--3------------|-3--3------------|-3--3------------|----------------o||
A|o-----------------|-----------------|-----------------|-4-------6------o||
E|------------------|-----------------|-----------------|-----------------||

    Q  Q   T T T Q    Q  Q T T T T T T  Q  Q  T T T  Q    Q   Q   Q   Q
G|--------10-8-6-3--|------12108-108-7|-------10-8-6-3--|-5---3---1---0---|
D|--8--8------------|-10-10-----------|-8--8------------|-----------------|
A|------------------|-----------------|-----------------|-----------------|
E|------------------|-----------------|-----------------|-----------------|

    Q  Q  T T T  Q    Q  Q T T T T T T  Q  Q  T T T  Q    Q   Q   Q   Q
G|--------5-3-1--3--|------5-3-1-3-1-0|-------5-3-1--3--|-----6-------8---|
D|--3--3------------|-3--3------------|-3--3------------|-----------------|
A|------------------|-----------------|-----------------|-4-------6-------|
E|------------------|-----------------|-----------------|-----------------|

                         'USDF!'
    W+W               QT  QT  QT  H
G|------------------|-10--10--10--10--|
D|------------------|-----------------|
A|--6---------------|-8---8---8---8---|
E|------------------|-----------------|

            
            
Suggest correction
Creating personal tab
Creating personal tab
You can edit any tab online and save it as your Personal.

You can edit, replace or remove any tab part or add personal notes – all changes will be seen only by you.

Personal tabs can be accessed anytime from any device, even offline.
Learn more »
Give kudos to tab author, rate the tab!
1 2 3 4 5
comments
print report bad tab
guest
You may want to rate the tab now too:
select rating
Wanna post a correction for this tab? Suggest correction