Oops, an error
Loading. Please wait.

United We Stand Divided We Fall tab

413 views 1 this week
no commentswrite comment
1 2 3 4 5
3 more votes to show rating
add to favorites
×
Save as Personal and add changes to this tab that will be seen only by you. Learn more ›
×
You can save this tab as Personal to edit and correct it or add notes. All changes will be seen only by you. Learn more »
launch autoscroll
font size
0
reset
how to read this tab
guitar tuner
edit
Autoscroll
slow
fast
+/-
esc
set tempo
stop
Author
Difficulty
Song: United We Stand, Divided We Fall
Artist: Hellfire
Album: Warnings (2009)
Notes: I decided that tabbing the song in 4/4 with triplets would be easier
than tabbing straight 8ths in 12/8, so the spacing of the triplets in some
sections are a little cramped, just watch the notation. I didn't include the
solo, but it should be very easy to play by ear.

You can listen to Hellfire at www.hellfiremetal.com


Intro: (0:00-0:20)

    Q  Q  T T T  Q    Q  Q T T T T T T  Q  Q  T T T  Q    Q  Q  T T T  Q  x4
E|------------------|-----------------|-----------------|-----------------||
B|o-----------------|-----------------|-----------------|----------------o||
G|--------5-3-1--3--|------5-3-1-3-1-0|-------5-3-1--3--|-------5-3-1--0--||
D|--3--3------------|-3--3------------|-3--3------------|-3--3------------||
A|o-----------------|-----------------|-----------------|----------------o||
E|------------------|-----------------|-----------------|-----------------||
 |                  |                 |                 |                 ||
 |  Q  Q            | Q  Q            | Q  Q            | H     H         ||
E|------------------|-----------------|-----------------|-----------------||
B|o-----------------|-----------------|-----------------|----------------o||
G|--10-10-----------|-10-10-----------|-10-10-----------|-6-----8---------||
D|--10-10-----------|-10-10-----------|-10-10-----------|-6-----8---------||
A|o-8--8------------|-8--8------------|-8--8------------|-4-----6--------o||
E|------------------|-----------------|-----------------|-----------------||




Main Riff (0:20-0:30)

    Q  Q  T T T  Q    Q  Q T T T T T T  Q  Q  T T T  Q    Q  Q  T T T  Q  x2
E|------------------|-----------------|-----------------|-----------------||
B|o-----------------|-----------------|-----------------|----------------o||
G|--------5-3-1--3--|------5-3-1-3-1-0|-------5-3-1--3--|-------5-3-1--0--||
D|--3--3------------|-3--3------------|-3--3------------|-3--3------------||
A|o-----------------|-----------------|-----------------|----------------o||
E|------------------|-----------------|-----------------|-----------------||



Verse I (0:30-0:50)

  'Livining to fight...'
    W                 W                 W                 H     H         x4
E|------------------|-----------------|-----------------|-----------------||
B|o-----------------|-----------------|-----------------|----------------o||
G|--10--------------|-10--------------|-10--------------|-6-----8---------||
D|--10--------------|-10--------------|-10--------------|-6-----8---------||
A|o-8---------------|-8---------------|-8---------------|-4-----6--------o||
E|------------------|-----------------|-----------------|-----------------||




Main Riff (0:50-1:00)

    Q  Q  T T T  Q    Q  Q T T T T T T  Q  Q  T T T  Q    Q  Q  T T T  Q  x2
E|------------------|-----------------|-----------------|-----------------||
B|o-----------------|-----------------|-----------------|----------------o||
G|--------5-3-1--3--|------5-3-1-3-1-0|-------5-3-1--3--|-------5-3-1--0--||
D|--3--3------------|-3--3------------|-3--3------------|-3--3------------||
A|o-----------------|-----------------|-----------------|----------------o||
E|------------------|-----------------|-----------------|-----------------||




Verse II (1:00-1:20)

  'United we stand...'
    W                 W                 W                 H     H         x4
E|------------------|-----------------|-----------------|-----------------||
B|o-----------------|-----------------|-----------------|----------------o||
G|--10--------------|-10--------------|-10--------------|-6-----8---------||
D|--10--------------|-10--------------|-10--------------|-6-----8---------||
A|o-8---------------|-8---------------|-8---------------|-4-----6--------o||
E|------------------|-----------------|-----------------|-----------------||




Main Riff (1:20-1:46)

    Q  Q  T T T  Q    Q  Q T T T T T T  Q  Q  T T T  Q    Q  Q  T T T  Q  x2
E|------------------|-----------------|-----------------|-----------------||
B|o-----------------|-----------------|-----------------|----------------o||
G|--------5-3-1--3--|------5-3-1-3-1-0|-------5-3-1--3--|-------5-3-1--0--||
D|--3--3------------|-3--3------------|-3--3------------|-3--3------------||
A|o-----------------|-----------------|-----------------|----------------o||
E|------------------|-----------------|-----------------|-----------------||


    Q  Q   T T T Q    Q  Q T T T T T T  Q  Q  T T T  Q    Q   Q   Q   Q
E|------------------|-----------------|-----------------|-----------------|
B|------------------|-----------------|-----------------|-----------------|
G|--------10-8-6-3--|------12108-108-7|-------10-8-6-3--|-5---3---1---0---|
D|--8--8------------|-10-10-----------|-8--8------------|-----------------|
A|------------------|-----------------|-----------------|-----------------|
E|------------------|-----------------|-----------------|-----------------|


    Q  Q  T T T  Q    Q  Q T T T T T T  Q  Q  T T T  Q    Q  Q  T T T  Q
E|------------------|-----------------|-----------------|-----------------|
B|------------------|-----------------|-----------------|-----------------|
G|--------5-3-1--3--|------5-3-1-3-1-0|-------5-3-1--3--|-------5-3-1--0--|
D|--3--3------------|-3--3------------|-3--3------------|-3--3------------|
A|------------------|-----------------|-----------------|-----------------|
E|------------------|-----------------|-----------------|-----------------|


    W+W                                 W+W
E|------------------|-----------------|-----------------|-----------------|
B|------------------|-----------------|-----------------|-----------------|
G|--0---------------|-----------------|-1---------------|-----------------|
D|------------------|-----------------|-----------------|-----------------|
A|------------------|-----------------|-----------------|-----------------|
E|------------------|-----------------|-----------------|-----------------|
 |                  |                 |                 |                 |
 |  W+W             |                 | W+W             |                 |
E|------------------|-----------------|-----------------|-----------------|
B|------------------|-----------------|-----------------|-----------------|
G|--3---------------|-----------------|-5---------------|-----------------|
D|------------------|-----------------|-----------------|-----------------|
A|------------------|-----------------|-----------------|-----------------|
E|------------------|-----------------|-----------------|-----------------|




Bridge Section (1:46-2:26)

    E E     E E       E E    E E E E    E E     E E       E E    E E E E 
E|------------------|-----------------|-----------------|-----------------|
B|------------------|-----------------|-----------------|-----------------|
G|------------------|-----------------|-----------------|-----------------|
D|--3-3-----3-3-----|-3-3----6-6-5-5--|-3-3-----3-3-----|-3-3----6-6-5-5--|
A|--3-3-----3-3-----|-3-3----6-6-5-5--|-3-3-----3-3-----|-3-3----6-6-5-5--|
E|--1-1-----1-1-----|-1-1----4-4-3-3--|-1-1-----1-1-----|-1-1----4-4-3-3--|
 |                  |                 |                 |                 |
 |                  |                 |                 |                 |
E|------------------|-----------------|-----------------|-----------------|
B|------------------|-----------------|-----------------|-----------------|
G|------------------|-----------------|-----------------|-----------------|
D|------------------|-----------------|-----------------|-----------------|
A|------------------|-----------------|-----------------|-----------------|
E|------------------|-----------------|-----------------|-----------------|


    E E     E E       E E    E E E E    E E     E E       E E    E E E E 
E|------------------|-----------------|-----------------|-----------------|
B|------------------|-----------------|-----------------|-----------------|
G|------------------|-----------------|-----------------|-----------------|
D|--3-3-----3-3-----|-3-3----6-6-5-5--|-3-3-----3-3-----|-3-3----6-6-5-5--|
A|--3-3-----3-3-----|-3-3----6-6-5-5--|-3-3-----3-3-----|-3-3----6-6-5-5--|
E|--1-1-----1-1-----|-1-1----4-4-3-3--|-1-1-----1-1-----|-1-1----4-4-3-3--|
 |                  |                 |                 |                 |
 |                  |                 |                 |                 |
E|------------------|-----------------|-----------------|-----------------|
B|------------------|-----------------|-----------------|-----------------|
G|------------------|-----------------|-----------------|-----------------|
D|--3-3-----3-3-----|-3-3-------------|-3-3-----3-3-----|-3---------------|
A|--3-3-----3-3-----|-3-3-------------|-3-3-----3-3-----|-3---------------|
E|--1-1-----1-1-----|-1-1-------------|-1-1-----1-1-----|-1---------------|


    E E E E E E E E   E E E E E E E E   E E E E E E E E   E E E E E E E E x2
E|------------------|-----------------|-----------------|-----------------||
B|o-----------------|-----------------|-----------------|----------------o||
G|------------------|-----------------|-----------------|-----------------||
D|--3-3-----3-3-----|-3-3-----6-6-5-5-|-3-3-----3-3-----|-3-3-----6-6-5-5-||
A|o-3-3-----3-3-----|-3-3-----6-6-5-5-|-3-3-----3-3-----|-3-3-----6-6-5-5o||
E|--1-1-1-1-1-1-1-1-|-1-1-1-1-4-4-3-3-|-1-1-1-1-1-1-1-1-|-1-1-1-1-4-4-3-3-||
PM:     . .     . .       . .               . .     . .       . .


  'They took you...'
    E E     E E       E E               E E     E E       E E    E E E E  x4
E|------------------|-----------------|-----------------|-----------------||
B|o-----------------|-----------------|-----------------|----------------o||
G|------------------|-----------------|-----------------|-----------------||
D|--3-3-----3-3-----|-3-3-------------|-3-3-----3-3-----|-3-3----6-6-5-5--||
A|o-3-3-----3-3-----|-3-3-------------|-3-3-----3-3-----|-3-3----6-6-5-5-o||
E|--1-1-----1-1-----|-1-1-------------|-1-1-----1-1-----|-1-1----4-4-3-3--||




Lead Riff (2:26-2:53)

   W                  E Q   Q   Q   E   W                 TTT TTT TTT Q
E|------------------|-----------------|-----------------|-----------------|
B|------------------|-----------------|-----------------|-----------------|
G|-5----------------|-3-5---6---5---3-|-5---------------|-----------------|
D|------------------|-----------------|-----------------|-686-565-353-1---|
A|------------------|-----------------|-----------------|-----------------|
E|------------------|-----------------|-----------------|-----------------|
 |                  |                 |                 |                 |
 |  E E E E E E E E | E E E E E E E E | E E E E E E E E | E E E E E E E E |
E|------------------|-----------------|-----------------|-----------------|
B|------------------|-----------------|-----------------|-----------------|
G|------------------|-----------------|-----------------|-----------------|
D|--3-3-----3-3-----|-3-3-----6-6-5-5-|-3-3-----3-3-----|-3-3-----6-6-5-5-|
A|--3-3-----3-3-----|-3-3-----6-6-5-5-|-3-3-----3-3-----|-3-3-----6-6-5-5-|
E|--1-1-1-1-1-1-1-1-|-1-1-1-1-4-4-3-3-|-1-1-1-1-1-1-1-1-|-1-1-1-1-4-4-3-3-|
PM:     . .     . .       . .               . .     . .       . .


   W                  E Q   Q   Q   E   W                 E E E Q   E Q
E|------------------|-----------------|-----------------|-----------------|
B|------------------|-----------------|-----------------|-----------------|
G|-5----------------|-3-5---8---6---5-|-6---------------|-8-6-5-6---5-3---|
D|------------------|-----------------|-----------------|-----------------|
A|------------------|-----------------|-----------------|-----------------|
E|------------------|-----------------|-----------------|-----------------|
 |                  |                 |                 |                 |
 |  E E E E E E E E | E E E E E E E E | E E E E E E E E | E E E E E E E E |
E|------------------|-----------------|-----------------|-----------------|
B|------------------|-----------------|-----------------|-----------------|
G|------------------|-----------------|-----------------|-----------------|
D|--3-3-----3-3-----|-3-3-----6-6-5-5-|-3-3-----3-3-----|-3-3-----6-6-5-5-|
A|--3-3-----3-3-----|-3-3-----6-6-5-5-|-3-3-----3-3-----|-3-3-----6-6-5-5-|
E|--1-1-1-1-1-1-1-1-|-1-1-1-1-4-4-3-3-|-1-1-1-1-1-1-1-1-|-1-1-1-1-4-4-3-3-|
PM:     . .     . .       . .               . .     . .       . .


   W                  E Q   Q   Q   E   W                 TTT TTT TTT Q
E|------------------|-----------------|-----------------|-----------------|
B|------------------|-----------------|-----------------|-----------------|
G|-5----------------|-3-5---6---5---3-|-5---------------|-----------------|
D|------------------|-----------------|-----------------|-686-565-353-1---|
A|------------------|-----------------|-----------------|-----------------|
E|------------------|-----------------|-----------------|-----------------|
 |                  |                 |                 |                 |
 |  E E E E E E E E | E E E E E E E E | E E E E E E E E | E E E E E E E E |
E|------------------|-----------------|-----------------|-----------------|
B|------------------|-----------------|-----------------|-----------------|
G|------------------|-----------------|-----------------|-----------------|
D|--3-3-----3-3-----|-3-3-----6-6-5-5-|-3-3-----3-3-----|-3-3-----6-6-5-5-|
A|--3-3-----3-3-----|-3-3-----6-6-5-5-|-3-3-----3-3-----|-3-3-----6-6-5-5-|
E|--1-1-1-1-1-1-1-1-|-1-1-1-1-4-4-3-3-|-1-1-1-1-1-1-1-1-|-1-1-1-1-4-4-3-3-|
PM:     . .     . .       . .               . .     . .       . .


   W                  E Q   Q   Q   E   W                 H       Q   Q
E|------------------|-----------------|-----------------|-----------------|
B|------------------|-----------------|-----------------|-----------------|
G|-5----------------|-3-5---6---5---6-|-10--------------|-8-------6---5---|
D|------------------|-----------------|-----------------|-----------------|
A|------------------|-----------------|-----------------|-----------------|
E|------------------|-----------------|-----------------|-----------------|
 |                  |                 |                 |                 |
 |  E E E E E E E E | E E E E E E E E | E E E E E E E E | E E E E E E E E |
E|------------------|-----------------|-----------------|-----------------|
B|------------------|-----------------|-----------------|-----------------|
G|------------------|-----------------|-----------------|-----------------|
D|--3-3-----3-3-----|-3-3-----6-6-5-5-|-3-3-----3-3-----|-3-3-----6-6-5-5-|
A|--3-3-----3-3-----|-3-3-----6-6-5-5-|-3-3-----3-3-----|-3-3-----6-6-5-5-|
E|--1-1-1-1-1-1-1-1-|-1-1-1-1-4-4-3-3-|-1-1-1-1-1-1-1-1-|-1-1-1-1-4-4-3-3-|
PM:     . .     . .       . .               . .     . .       . .


   Wx4
E|------------------|-----------------|-----------------|-----------------|
B|------------------|-----------------|-----------------|-----------------|
G|-5----------------|-----------------|-----------------|-----------------|
D|------------------|-----------------|-----------------|-----------------|
A|------------------|-----------------|-----------------|-----------------|
E|------------------|-----------------|-----------------|-----------------|
 |                  |                 |                 |                 |
 |  E E E E E E E E | Wx3             |                 |                 |
E|------------------|-----------------|-----------------|-----------------|
B|------------------|-----------------|-----------------|-----------------|
G|------------------|-----------------|-----------------|-----------------|
D|--3-3-----3-3-----|-3---------------|-----------------|-----------------|
A|--3-3-----3-3-----|-3---------------|-----------------|-----------------|
E|--1-1-1-1-1-1-1-1-|-1---------------|-----------------|-----------------|
PM:     . .     . . 




Pre-Solo Section (2:53-3:22)

   TTT TTT TTT Q      TTT TTT TTT Q     TTT TTT TTT Q     TTT TTT TTT Q
E|------------------|-----------------|-----------------|-----------------|
B|------------------|-----------------|-----------------|-----------------|
G|------------------|-----------------|-----------------|-----------------|
D|-333-633-333-6----|-----------------|-----------------|-111-511-111-5---|
A|------------------|-444-844-444-8---|-----------------|-----------------|
E|------------------|-----------------|-444-844-444-8---|-----------------|
 |                  |                 |                 |                 |
 |                  |                 |                 |                 |
E|------------------|-----------------|-----------------|-----------------|
B|------------------|-----------------|-----------------|-----------------|
G|------------------|-----------------|-----------------|-----------------|
D|------------------|-----------------|-----------------|-----------------|
A|------------------|-----------------|-----------------|-----------------|
E|------------------|-----------------|-----------------|-----------------|


   TTT TTT TTT Q      TTT TTT TTT Q     TTT TTT TTT Q     TTT TTT TTT Q
E|------------------|-----------------|-----------------|-----------------|
B|------------------|-----------------|-----------------|-----------------|
G|------------------|-----------------|-----------------|-----------------|
D|-333-633-333-6----|-----------------|-----------------|-111-511-111-5---|
A|------------------|-444-844-444-8---|-----------------|-----------------|
E|------------------|-----------------|-444-844-444-8---|-----------------|
 |                  |                 |                 |                 |
 | W                | W               | W               | W               |
E|------------------|-----------------|-----------------|-----------------|
B|------------------|-----------------|-----------------|-----------------|
G|-10---------------|-6---------------|-----------------|-8---------------|
D|-10---------------|-6---------------|-6---------------|-8---------------|
A|-8----------------|-4---------------|-6---------------|-6---------------|
E|------------------|-----------------|-4---------------|-----------------|


   TTT TTT TTT Q      TTT TTT TTT Q     TTT TTT TTT Q     TTT TTT TTT Q   x2
E|------------------|-----------------|-----------------|-----------------||
B|o-----------------|-----------------|-----------------|----------------o||
G|------------------|-----------------|-----------------|-----------------||
D|-333-633-333-6----|-----------------|-----------------|-111-511-111-5---||
A|o-----------------|-444-844-444-8---|-----------------|----------------o||
E|------------------|-----------------|-444-844-444-8---|-----------------||


   W                  W                 W                 W               x2
E|------------------|-----------------|-----------------|-----------------||
B|o-----------------|-----------------|-----------------|----------------o||
G|-10---------------|-6---------------|-----------------|-8---------------||
D|-10---------------|-6---------------|-6---------------|-8---------------||
A|o8----------------|-4---------------|-6---------------|-6--------------o||
E|------------------|-----------------|-4---------------|-----------------||




Solo Backing Riff (3:22-3:40)

   W                  W                 W                 W               x3
E|------------------|-----------------|-----------------|-----------------||
B|o-----------------|-----------------|-----------------|----------------o||
G|-10---------------|-6---------------|-----------------|-8---------------||
D|-10---------------|-6---------------|-6---------------|-8---------------||
A|o8----------------|-4---------------|-6---------------|-6--------------o||
E|------------------|-----------------|-4---------------|-----------------||

   TTT TTT TTT TTT    W 
E|------------------|-----------------|
B|------------------|-----------------|
G|------------------|-10--------------|
D|------------------|-10--------------|
A|-888-888-888-888--|-8---------------|
E|------------------|-----------------|
PM:... ... ... ...




Main Riff (3:40-4:21)

    Q  Q  T T T  Q    Q  Q T T T T T T  Q  Q  T T T  Q    TTT TTT TTT Q  x2
E|------------------|-----------------|-----------------|-----------------||
B|o-----------------|-----------------|-----------------|----------------o||
G|--------5-3-1--3--|------5-3-1-3-1-0|-------5-3-1--3--|-653-531-310-1---||
D|--3--3------------|-3--3------------|-3--3------------|-----------------||
A|o-----------------|-----------------|-----------------|----------------o||
E|------------------|-----------------|-----------------|-----------------||


    Q  Q  T T T  Q    Q  Q T T T T T T  Q  Q  T T T  Q    Q  Q  T T T  Q  x2
E|------------------|-----------------|-----------------|-----------------||
B|o-----------------|-----------------|-----------------|----------------o||
G|--------5-3-1--3--|------5-3-1-3-1-0|-------5-3-1--3--|-------5-3-1--0--||
D|--3--3------------|-3--3------------|-3--3------------|-3--3------------||
A|o-----------------|-----------------|-----------------|----------------o||
E|------------------|-----------------|-----------------|-----------------||


   H+Q           Q    H+Q          Q    H+Q          Q    H     H         x2
E|------------------|-----------------|-----------------|-----------------||
B|o-----------------|-----------------|-----------------|----------------o||
G|------------------|-----------------|-----------------|-----------------||
D|-10------------8--|-10-----------8--|-6------------5--|-6-----8---------||
A|o-----------------|-----------------|-----------------|----------------o||
E|------------------|-----------------|-----------------|-----------------||


   H+Q           Q    H+Q          Q    H+Q          Q    H     H         x2
E|------------------|-----------------|-----------------|-----------------||
B|o-----------------|-----------------|-----------------|----------------o||
G|-10------------8--|-10-----------8--|-6------------5--|-6-----8---------||
D|------------------|-----------------|-----------------|-----------------||
A|o-----------------|-----------------|-----------------|----------------o||
E|------------------|-----------------|-----------------|-----------------||




Verse II (4:21-4:41)

  'Fall to the earth...'
    W                 W                 W                 H     H         x4
E|------------------|-----------------|-----------------|-----------------||
B|o-----------------|-----------------|-----------------|----------------o||
G|--10--------------|-10--------------|-10--------------|-6-----8---------||
D|--10--------------|-10--------------|-10--------------|-6-----8---------||
A|o-8---------------|-8---------------|-8---------------|-4-----6--------o||
E|------------------|-----------------|-----------------|-----------------||




Main Riff (4:41-5:06)

    Q  Q  T T T  Q    Q  Q T T T T T T  Q  Q  T T T  Q    Q  Q  T T T  Q  x2
E|------------------|-----------------|-----------------|-----------------||
B|o-----------------|-----------------|-----------------|----------------o||
G|--------5-3-1--3--|------5-3-1-3-1-0|-------5-3-1--3--|-------5-3-1--0--||
D|--3--3------------|-3--3------------|-3--3------------|-3--3------------||
A|o-----------------|-----------------|-----------------|----------------o||
E|------------------|-----------------|-----------------|-----------------||


    Q  Q   T T T Q    Q  Q T T T T T T  Q  Q  T T T  Q    Q   Q   Q   Q
E|------------------|-----------------|-----------------|-----------------|
B|------------------|-----------------|-----------------|-----------------|
G|--------10-8-6-3--|------12108-108-7|-------10-8-6-3--|-5---3---1---0---|
D|--8--8------------|-10-10-----------|-8--8------------|-----------------|
A|------------------|-----------------|-----------------|-----------------|
E|------------------|-----------------|-----------------|-----------------|


    Q  Q  T T T  Q    Q  Q T T T T T T  Q  Q  T T T  Q    Q  Q  T T T  Q
E|------------------|-----------------|-----------------|-----------------|
B|------------------|-----------------|-----------------|-----------------|
G|--------5-3-1--3--|------5-3-1-3-1-0|-------5-3-1--3--|-------5-3-1--0--|
D|--3--3------------|-3--3------------|-3--3------------|-3--3------------|
A|------------------|-----------------|-----------------|-----------------|
E|------------------|-----------------|-----------------|-----------------|


                         'USDF!'
    W+W               QT  QT  QT  H
E|------------------|-----------------|
B|------------------|-----------------|
G|--0---------------|-----------------|
D|------------------|-----------------|
A|------------------|-----------------|
E|------------------|-----------------|
 |                  |                 |
 |  W+W             |                 |
E|------------------|-----------------|
B|------------------|-----------------|
G|--3---------------|-10--10--10--10--|
D|------------------|-10--10--10--10--|
A|------------------|-8---8---8---8---|
E|------------------|-----------------|

            
            
Suggest correction
Creating personal tab
Creating personal tab
You can edit any tab online and save it as your Personal.

You can edit, replace or remove any tab part or add personal notes – all changes will be seen only by you.

Personal tabs can be accessed anytime from any device, even offline.
Learn more »
Give kudos to tab author, rate the tab!
1 2 3 4 5
comments
print report bad tab
guest
You may want to rate the tab now too:
select rating
Wanna post a correction for this tab? Suggest correction