Oops, an error
Loading. Please wait.

Thresher tab

934 views 18 this week
7 commentsread comments
1 2 3 4 5
x 6
add to favorites
×
Save as Personal and add changes to this tab that will be seen only by you. Learn more ›
×
You can save this tab as Personal to edit and correct it or add notes. All changes will be seen only by you. Learn more »
launch autoscroll
font size
0
reset
how to read this tab
guitar tuner
edit
Autoscroll
slow
fast
+/-
esc
set tempo
stop
[Intro]
(Guitar 1)
C#|----10-------10---12---14---12---10---|
G#|--------------------------------------|
E |7--------7----------------------------|
B |--------------------------------------|(x4)
F#|--------------------------------------|
B |--------------------------------------|

(Guitar 2)
C#|--------------------------------|
G#|--------------------------------|
E |7---7-----7-----6---6-----6-----|
B |7---7---x-7---x-6---6---x-6---x-|
F#|5---5---x-5---x-4---4---x-4---x-|
B |--------x-----x---------x-----x-|
   Play on 4th time

(Guitar 1)
C#|----10------10--12--14--12--10--|----10------10--12--14--15--14--|
G#|--------------------------------|--------------------------------|
E |7-------7-----------------------|7-------7-----------------------|
B |--------------------------------|--------------------------------|
F#|--------------------------------|--------------------------------|
B |--------------------------------|--------------------------------|

C#|----10------10--12--14--12--10--|----10------10--15--14--12--14--|
G#|--------------------------------|--------------------------------|
E |7-------7-----------------------|7-------7-----------------------|
B |--------------------------------|--------------------------------|(x2)
F#|--------------------------------|--------------------------------|
B |--------------------------------|--------------------------------|

(Guitar 2)
C#|--------------------------------|----------------|--------------------------------|
G#|--------------------------------|----------------|--------------------------------|
E |4-4-4-4-4-4-4-4-----------------|----------------|7---7-----7-----6---6-----6-----|
B |4-4-4-4-4-4-4-4-5-5-5-5-5-5-5-5-|7-7-7-7-7-7-7-7-|7---7---x-7---x-6---6---x-6---x-|(x2)
F#|2-2-2-2-2-2-2-2-5-5-5-5-5-5-5-5-|7-7-7-7-7-7-7-7-|5---5---x-5---x-4---4---x-4---x-|
B |----------------5-5-5-5-5-5-5-5-|7-7-7-7-7-7-7-7-|--------x-----x---------x-----x-|


C#|----------------------------------------------------------------|
G#|----------------------------------------------------------------|
E |7-------7---------------7---7-----------7-----------7---7---7---|
B |7-------7---------------7---7-----------7-----------7---7---7---|
F#|5-------5---------------5---5-----------5-----------5---5---5---|
B |----0-------0---0---0-----------0---0-------0---0---------------|
       PM-|    PM---------|        PM-----|    PM-----|

[Verse]
(Guitar 1 and 2)
C#|--------------------------------|--------------------------------|
G#|--------------------------------|--------------------------------|
E |7-7-7-7-7-7-7-7-7-7-7-7-7-7-7-7-|--------------------------------|
B |7-7-7-7-7-7-7-7-7-7-7-7-7-7-7-7-|7-7-7-7-7-7-7-7-7-7-7-7-7-7-7-7-|
F#|5-5-5-5-5-5-5-5-5-5-5-5-5-5-5-5-|7-7-7-7-7-7-7-7-7-7-7-7-7-7-7-7-|
B |--------------------------------|7-7-7-7-7-7-7-7-7-7-7-7-7-7-7-7-|
   PM--------------------------------------------------------------|

C#|--------------------------------|--------------------------------|
G#|--------------------------------|--------------------------------|
E |--------------------------------|--------------------------------|
B |5-5-5-5-5-5-5-5-5-5-5-5-5-5-5-5-|7-7-7-7-7-7-7-7-7-7-7-7-7-7-7-7-|
F#|5-5-5-5-5-5-5-5-5-5-5-5-5-5-5-5-|7-7-7-7-7-7-7-7-7-7-7-7-7-7-7-7-|
B |5-5-5-5-5-5-5-5-5-5-5-5-5-5-5-5-|7-7-7-7-7-7-7-7-7-7-7-7-7-7-7-7-|
   PM--------------------------------------------------------------|

(Guitar 1 and 2)
C#|--------------------------------|--------------------------------|
G#|--------------------------------|--------------------------------|
E |7-7-7-7-7-7-7-7-7-7-7-7-7-7-7-7-|--------------------------------|
B |7-7-7-7-7-7-7-7-7-7-7-7-7-7-7-7-|7-7-7-7-7-7-7-7-7-7-7-7-7-7-7-7-|
F#|5-5-5-5-5-5-5-5-5-5-5-5-5-5-5-5-|7-7-7-7-7-7-7-7-7-7-7-7-7-7-7-7-|
B |--------------------------------|7-7-7-7-7-7-7-7-7-7-7-7-7-7-7-7-|

C#|--------------------------------|--------------------------------|
G#|--------------------------------|--------------------------------|
E |--------------------------------|--------------------------------|
B |5-5-5-5-5-5-5-5-5-5-5-5-5-5-5-5-|7-7-7-7-7-7-7-7-7-7-7-7-7-7-7-7-|
F#|5-5-5-5-5-5-5-5-5-5-5-5-5-5-5-5-|7-7-7-7-7-7-7-7-7-7-7-7-7-7-7-7-|
B |5-5-5-5-5-5-5-5-5-5-5-5-5-5-5-5-|7-7-7-7-7-7-7-7-7-7-7-7-7-7-7-7-|


[Chorus]
(Guitar 1)
C#|----10------10--12--14--12--10--|----10------10--12--14--15--14--|
G#|--------------------------------|--------------------------------|
E |7-------7-----------------------|7-------7-----------------------|
B |--------------------------------|--------------------------------|
F#|--------------------------------|--------------------------------|
B |--------------------------------|--------------------------------|

C#|----10------10--12--14--12--10--|----10------10--15--14--12--14--|
G#|--------------------------------|--------------------------------|
E |7-------7-----------------------|7-------7-----------------------|
B |--------------------------------|--------------------------------|(x2)
F#|--------------------------------|--------------------------------|
B |--------------------------------|--------------------------------|

(Guitar 2)
C#|--------------------------------|--------------------------------|
G#|--------------------------------|--------------------------------|
E |4-4-4-4-4-4-4-4-4-4-4-4-4-4-4-4-|--------------------------------|
B |4-4-4-4-4-4-4-4-4-4-4-4-4-4-4-4-|5-5-5-5-5-5-5-5-5-5-5-5-5-5-5-5-|
F#|2-2-2-2-2-2-2-2-2-2-2-2-2-2-2-2-|5-5-5-5-5-5-5-5-5-5-5-5-5-5-5-5-|
B |--------------------------------|5-5-5-5-5-5-5-5-5-5-5-5-5-5-5-5-|

C#|--------------------------------|--------------------------------|
G#|--------------------------------|--------------------------------|
E |--------------------------------|7---7-----7-----6---6-----6-----|
B |7-7-7-7-7-7-7-7-7-7-7-7-7-7-7-7-|7---7---x-7---x-6---6---x-6---x-|(x2)
F#|7-7-7-7-7-7-7-7-7-7-7-7-7-7-7-7-|5---5---x-5---x-4---4---x-4---x-|
B |7-7-7-7-7-7-7-7-7-7-7-7-7-7-7-7-|--------x-----x---------x-----x-|


[Verse 2]
(Guitar 1 and 2)
C#|--------------------------------|--------------------------------|
G#|--------------------------------|--------------------------------|
E |7-7-7-7-7-7-7-7-7-7-7-7-7-7-7-7-|--------------------------------|
B |7-7-7-7-7-7-7-7-7-7-7-7-7-7-7-7-|7-7-7-7-7-7-7-7-7-7-7-7-7-7-7-7-|
F#|5-5-5-5-5-5-5-5-5-5-5-5-5-5-5-5-|7-7-7-7-7-7-7-7-7-7-7-7-7-7-7-7-|
B |--------------------------------|7-7-7-7-7-7-7-7-7-7-7-7-7-7-7-7-|

C#|--------------------------------|--------------------------------|
G#|--------------------------------|--------------------------------|
E |--------------------------------|--------------------------------|
B |5-5-5-5-5-5-5-5-5-5-5-5-5-5-5-5-|7-7-7-7-7-7-7-7-7-7-7-7-7-7-7-7-|
F#|5-5-5-5-5-5-5-5-5-5-5-5-5-5-5-5-|7-7-7-7-7-7-7-7-7-7-7-7-7-7-7-7-|
B |5-5-5-5-5-5-5-5-5-5-5-5-5-5-5-5-|7-7-7-7-7-7-7-7-7-7-7-7-7-7-7-7-|

C#|--------------------------------|--------------------------------|
G#|--------------------------------|--------------------------------|
E |--------------------------------|--------------------------------|
B |5-------5-------5-----5-----5---|7-------7-------7-----7-----7---|
F#|5-------5-------5-----5-----5---|7-------7-------7-----7-----7---|
B |5-------5-------5-----5-----5---|7-------7-------7-----7-----7---|

C#|--------------------------------|--------------------------------|
G#|--------------------------------|--------------------------------|
E |--------------------------------|7---7-----7-----6---6-----6-----|
B |8-------8-------8-----8-----8---|7---7---x-7---x-6---6---x-6---x-|
F#|8-------8-------8-----8-----8---|5---5---x-5---x-4---4---x-4---x-|
B |8-------8-------8-----8-----8---|--------x-----x---------x-----x-|


[Chorus]
(Guitar 1)
C#|----10------10--12--14--12--10--|----10------10--12--14--15--14--|
G#|--------------------------------|--------------------------------|
E |7-------7-----------------------|7-------7-----------------------|
B |--------------------------------|--------------------------------|
F#|--------------------------------|--------------------------------|
B |--------------------------------|--------------------------------|

C#|----10------10--12--14--12--10--|----10------10--15--14--12--14--|
G#|--------------------------------|--------------------------------|
E |7-------7-----------------------|7-------7-----------------------|
B |--------------------------------|--------------------------------|(x2)
F#|--------------------------------|--------------------------------|
B |--------------------------------|--------------------------------|

(Guitar 2)
C#|--------------------------------|--------------------------------|
G#|--------------------------------|--------------------------------|
E |4-4-4-4-4-4-4-4-4-4-4-4-4-4-4-4-|--------------------------------|
B |4-4-4-4-4-4-4-4-4-4-4-4-4-4-4-4-|5-5-5-5-5-5-5-5-5-5-5-5-5-5-5-5-|
F#|2-2-2-2-2-2-2-2-2-2-2-2-2-2-2-2-|5-5-5-5-5-5-5-5-5-5-5-5-5-5-5-5-|
B |--------------------------------|5-5-5-5-5-5-5-5-5-5-5-5-5-5-5-5-|

C#|--------------------------------|--------------------------------|
G#|--------------------------------|--------------------------------|
E |--------------------------------|7---7-----7-----6---6-----6-----|
B |7-7-7-7-7-7-7-7-7-7-7-7-7-7-7-7-|7---7---x-7---x-6---6---x-6---x-|(x2)
F#|7-7-7-7-7-7-7-7-7-7-7-7-7-7-7-7-|5---5---x-5---x-4---4---x-4---x-|
B |7-7-7-7-7-7-7-7-7-7-7-7-7-7-7-7-|--------x-----x---------x-----x-|


[Bridge]
(Guitar 1 and 2)
C#|--------------------------------|--------------------------------|
G#|--------------------------------|--------------------------------|
E |--------------------------------|7-7-7-7-6-6-6-6-4-4-4-4---------|
B |5-5-5-5-5-5-5-5-7-7-7-7-7-7-7-7-|7-7-7-7-6-6-6-6-4-4-4-4-7-7-7-7-|(x2)
F#|5-5-5-5-5-5-5-5-7-7-7-7-7-7-7-7-|5-5-5-5-4-4-4-4-2-2-2-2-7-7-7-7-|
B |5-5-5-5-5-5-5-5-7-7-7-7-7-7-7-7-|------------------------7-7-7-7-|

C#|--------------------------------|
G#|--------------------------------|
E |--------------------------------|
B |5-5-5-5-5-5-5-5-5-5-5-5-5-5-5-5-|
F#|5-5-5-5-5-5-5-5-5-5-5-5-5-5-5-5-|
B |5-5-5-5-5-5-5-5-5-5-5-5-5-5-5-5-|

[Break]
(Guitar 1 and 2)
C#|----------------|----------------|----------------|----------------|----------------|
G#|----------------|----------------|----------------|----------------|----------------|
E |7---------------|----------------|----------------|----------------|----------------|
B |7---------------|7---------------|5---------------|7-7-7-7-7-7-7-7-|7-7-7-7-7-7-7-7-|
F#|5---------------|7---------------|5---------------|7-7-7-7-7-7-7-7-|7-7-7-7-7-7-7-7-|
B |----------------|7---------------|5---------------|7-7-7-7-7-7-7-7-|7-7-7-7-7-7-7-7-|
                                                      PM------------------------------|
                                                      Gradually Release Palm Mute

[Outro]
(Guitar 1)
C#|--------------------------------|--------------------------------|
G#|--------------------------------|--------------------------------|
E |4-4-4-4-4-4-4-4-4-4-4-4-4-4-4-4-|--------------------------------|
B |4-4-4-4-4-4-4-4-4-4-4-4-4-4-4-4-|5-5-5-5-5-5-5-5-5-5-5-5-5-5-5-5-|
F#|2-2-2-2-2-2-2-2-2-2-2-2-2-2-2-2-|5-5-5-5-5-5-5-5-5-5-5-5-5-5-5-5-|
B |--------------------------------|5-5-5-5-5-5-5-5-5-5-5-5-5-5-5-5-|

C#|--------------------------------|--------------------------------|
G#|--------------------------------|--------------------------------|
E |--------------------------------|7-7-7-7-7-7-7-7-6-6-6-6-6-6-6-6-|
B |7-7-7-7-7-7-7-7-7-7-7-7-7-7-7-7-|7-7-7-7-7-7-7-7-6-6-6-6-6-6-6-6-|(x2)
F#|7-7-7-7-7-7-7-7-7-7-7-7-7-7-7-7-|5-5-5-5-5-5-5-5-4-4-4-4-4-4-4-4-|
B |7-7-7-7-7-7-7-7-7-7-7-7-7-7-7-7-|--------------------------------|

C#|--------------------------------|--------------------------------|
G#|--------------------------------|--------------------------------|
E |4-------------------------------|--------------------------------|
B |4-------------------------------|--------------------------------|
F#|2-------------------------------|--------------------------------|
B |--------------------------------|--------------------------------|


************************************

| x   Dead note
| PM  Palm Mute

************************************

            
            
Suggest correction
Creating personal tab
Creating personal tab
You can edit any tab online and save it as your Personal.

You can edit, replace or remove any tab part or add personal notes – all changes will be seen only by you.

Personal tabs can be accessed anytime from any device, even offline.
Learn more »
comments
print report bad tab
7 comments total. Showing first comments.
0 reply
kbaines 35 Apr 12, 2017 01:41 AM

Nice tab, it sounds good

0 reply
kbaines 35 Apr 12, 2017 01:42 AM

Actually, it sounds better one fret lower in drop c tuning

0 reply
LuminalThunder 53 Jun 12, 2017 09:01 AM

Is it Drop B or D Standard? You have both up there.

guest
You may want to rate the tab now too:
select rating
Wanna post a correction for this tab? Suggest correction