Oops, an error
Loading. Please wait.

Baby Its Fact bass

version 2
version 2

Whole song

80 views 1 this week
no commentswrite comment
1 2 3 4 5
3 more votes to show rating
add to favorites
×
Save as Personal and add changes to this tab that will be seen only by you. Learn more ›
×
You can save this tab as Personal to edit and correct it or add notes. All changes will be seen only by you. Learn more »
launch autoscroll
font size
0
reset
guitar tuner
edit
Autoscroll
slow
fast
+/-
esc
set tempo
stop
Author
So, the other one was terrible and wrong. Mines probably not perfect but its in the 
right key so thats always a bonus.

Anyway, here goes please rate and comment/correct any mistakes.

Best way is to learn its little bit one by one then play a section then a song long but 
this songs worth it.


Verse:
G|12-10---------------------10---10-12-10-------------------------------------------------10---10-12-10------|
D|------13-12-10---10-12-13---------------12-10-8---8-10-12------------8----10---10-12-13---------------12-10|
A|----------------------------------------------------------10---10-12---10----------------------------------|
E|-----------------------------------------------------------------------------------------------------------|

Pre-Chorus:
G|-----------|
D|88-77-55-33|
A|-----------|
E|-----------|

Chorus:
Basically the verse an octave lower
G|-------------------------------------------------------------------------------------------------------|
D|----------3---3-5-3-------------------------------------3---3-5-3------------------------------------3~|
A|3---3-5-6-----------5-3-1---1-3-5-------------3---3-5-6-----------5-3-1---1-3-5-------------3---3-5-6--|
E|----------------------------------3---3-5-6-3-----------------------------------3---3-5-6-3------------|

first part of verse 2 (they may say):
G|-----------------------------------------------------|
D|-----------------------------------------------------|
A|10~-10h12~-12h13~-13p12~-12p10~-10h12~-12h13~-13h15~-|
E|-----------------------------------------------------|

Verse:
G|12-10---------------------10---10-12-10-------------------------------------------------10---10-12-10------|
D|------13-12-10---10-12-13---------------12-10-8---8-10-12------------8----10---10-12-13---------------12-10|
A|----------------------------------------------------------10---10-12---10----------------------------------|
E|-----------------------------------------------------------------------------------------------------------|

Pre-Chorus:
G|-----------|
D|88-77-55-33|
A|-----------|
E|-----------|

Chorus:
Basically the verse an octave lower
G|-------------------------------------------------------------------------------------------------------|
D|----------3---3-5-3-------------------------------------3---3-5-3------------------------------------3~|
A|3---3-5-6-----------5-3-1---1-3-5-------------3---3-5-6-----------5-3-1---1-3-5-------------3---3-5-6--|
E|----------------------------------3---3-5-6-3-----------------------------------3---3-5-6-3------------|

BREAK: NO BASS
Chorus:
Basically the verse an octave lower
G|-------------------------------------------------------------------------------------------------------|
D|----------3---3-5-3-------------------------------------3---3-5-3------------------------------------3~|
A|3---3-5-6-----------5-3-1---1-3-5-------------3---3-5-6-----------5-3-1---1-3-5-------------3---3-5-6--|
E|----------------------------------3---3-5-6-3-----------------------------------3---3-5-6-3------------|

            
            
Suggest correction
Creating personal tab
Creating personal tab
You can edit any tab online and save it as your Personal.

You can edit, replace or remove any tab part or add personal notes – all changes will be seen only by you.

Personal tabs can be accessed anytime from any device, even offline.
Learn more »
Give kudos to tab author, rate the tab!
1 2 3 4 5
comments
print report bad tab
guest
You may want to rate the tab now too:
select rating
Wanna post a correction for this tab? Suggest correction