Oops, an error
Loading. Please wait.

A Little Time tab

version 3
version 3

Whole song

Interactive

1,300 views 1 this week
no commentswrite comment
1 2 3 4 5
3 more votes to show rating
add to favorites
×
Save as Personal and add changes to this tab that will be seen only by you. Learn more ›
×
You can save this tab as Personal to edit and correct it or add notes. All changes will be seen only by you. Learn more »
launch autoscroll
font size
0
reset
how to read this tab
guitar tuner
edit
Autoscroll
slow
fast
+/-
esc
set tempo
stop
#----------------------------------PLEASE NOTE---------------------------------#
#This file is the author's own work and represents their interpretation of the #
#song. You may only use this file for private study, scholarship, or research. #
#------------------------------------------------------------------------------#

A LITTLE TIME
As recorded by Helloween
(From the 1987 Album KEEPER OF THE SEVEN KEYS PT.1)

Transcribed by Ivan - (peekaboo104@hotmail.com)
        

Words and Music by Michael Kiske

E5
0 2 2 x x x

Gtr I (E A D G B E) - 'Untitled'
Gtr II (E A D G B E) - 'Untitled'
Gtr III (E A D G B E) - 'Untitled'

 Intro
  Moderately Fast Rock Q=155(8=s8)
        B5     A5    G5      A5    D5    A5    B5
 4/4
  Gtr I
  PM--|
  |-3-|
  E E E Q  +E  S S E S S   E S S E S S E S S E E
|------------------------|-----------------------|
|------------------------|-----------------------|
|------------------------|---------7-7-7---------|
|-------9--(9)-7-7-7-5-5-|-5-7-7-7-7-7-7-7-7-7-9-|
|-------9--(9)-7-7-7-5-5-|-5-7-7-7-5-5-5-7-7-7-9-|
|-0-0-0-7--(7)-5-5-5-3-3-|-3-5-5-5-------5-5-5-7-|


               A5    G5               A5
  PM--|                       PM--|
  |-3-|                       |-3-| |3|
  E E E Q  +E  S S E E   +Q   E E E E Q Q
|----------------------|--------------------||
|----------------------|--------------------||
|----------------------|--------------------||
|-------9--(9)-7-7-7-5-|-(5)--------5s7-7---||
|-------9--(9)-7-7-7-5-|-(5)--------5s7-7---||
|-0-0-0-7--(7)-5-5-5-3-|-(3)--3-3-3-3s5-5---||


        B5      A5    G5        A5    D5    A5    B5
  PM--|
  |-3-|
  E E E Q   +E  S S E S S    E  S S E S S E S S E E
|-------------------------|-------------------------|
|-------------------------|-------------------------|
|-------------------------|-----------7-7-7---------|
|-------9---(9)-7-7-7-5-5-|--5--7-7-7-7-7-7-7-7-7-9-|
|-------9---(9)-7-7-7-5-5-|--5--7-7-7-5-5-5-7-7-7-9-|
|-7-7-7-7---(7)-5-5-5-3-3-|--3--5-5-5-------5-5-5-7-|
|
| Gtr II
| PM--|
| |-3-|
| E E E H.                  +W
|-------------------------|-------------------------|
|-------------------------|-------------------------|
|-------------------------|-------------------------|
|-------9-----------------|-(9)---------------------|
|-------9-----------------|-(9)---------------------|
|-7-7-7-7-----------------|-(7)---------------------|


                               A5                  G5
                                                                      \2.5/         \2.5/
   PM---|
   |--3--|
   E  E  E     Q        +E     S        S E        E   +Q            +Q            +H
|----------------------------------------------------|---------------------------------------||
|----------------------------------------------------|---------------------------------------||
|----------------------------------------------------|---------------------------------------||
|--------------9--------(9)----7--------7-7--------5-|-(5)-----------(5)-----------(5)-------||
|--------------9--------(9)----7--------7-7--------5-|-(5)-----------(5)-----------(5)-------||
|--7--7--7-----7--------(7)----5--------5-5--------3-|-(3)-----------(3)-----------(3)-------||
|
|        \1.5/    \1.5/  \1.5/    \1.5/      \1.5/      \1.5/  \1.5/         \1.5/  \1.5/
|  |------3-------|      |---------3---------|          |---------3----------|
| +Q    +Q       +Q     +Q       +Q         +Q         +Q     +Q            +Q     +H
|----------------------------------------------------|---------------------------------------||
|----------------------------------------------------|---------------------------------------||
|----------------------------------------------------|---------------------------------------||
|-(9)---(9)------(9)----(9)------(9)--------(9)------|-(9)----(9)-----------(9)----(9)-------||
|----------------------------------------------------|---------------------------------------||
|----------------------------------------------------|---------------------------------------||


          B5     A5    G5      A5    D5    A5    B5
    PM--|
    |-3-|
    E E E Q  +E  S S E S S   E S S E S S E S S E E
||-------------------------|-----------------------|
||o------------------------|-----------------------|
||-------------------------|---------7-7-7---------|
||--------9--(9)-7-7-7-5-5-|-5-7-7-7-7-7-7-7-7-7-9-|
||o-------9--(9)-7-7-7-5-5-|-5-7-7-7-5-5-5-7-7-7-9-|
||--7-7-7-7--(7)-5-5-5-3-3-|-3-5-5-5-------5-5-5-7-|
|
|   W                        W
||-------------------------|-----------------------|
||o------------------------|-----------------------|
||-------------------------|-----------------------|
||-------------------------|-----------------------|
||o------------------------|-----------------------|
||-------------------------|-----------------------|


               A5    G5               A5
  PM--|                       PM--|
  |-3-|                       |-3-| |3|
  E E E Q  +E  S S E E   +Q   E E E E Q   Q
|----------------------|----------------------------||
|----------------------|---------------------------o||
|----------------------|----------------------------||
|-------9--(9)-7-7-7-5-|-(5)--------5s7---7---------||
|-------9--(9)-7-7-7-5-|-(5)--------5s7---7--------o||
|-7-7-7-7--(7)-5-5-5-3-|-(3)--3-3-3-3s5---5---------||
|
|                             |-3-| |-3-| |-3-|
| W                       Q   E E E E E E E E E
|----------------------|----------------------------||
|----------------------|---------------------------o||
|----------------------|------------------2-4-6-----||
|----------------------|------------2-4-5-4-5-7-----||
|----------------------|------2-4-5-4-5-7----------o||
|----------------------|------3-5-7-----------------||
                          Q   E E E E E E E E E
                              |-3-| |-3-| |-3-|


   Verses
          B5     A5    G5      A5    D5    A5    B5
    PM--|
    |-3-|
    E E E Q  +E  S S E S S   E S S E S S E S S E E
||-------------------------|-----------------------|
||o------------------------|-----------------------|
||-------------------------|---------7-7-7---------|
||--------9--(9)-7-7-7-5-5-|-5-7-7-7-7-7-7-7-7-7-9-|
||o-------9--(9)-7-7-7-5-5-|-5-7-7-7-5-5-5-7-7-7-9-|
||--7-7-7-7--(7)-5-5-5-3-3-|-3-5-5-5-------5-5-5-7-|
|
|   W                        W
||-------------------------|-----------------------|
||o------------------------|-----------------------|
||-------------------------|-----------------------|
||-------------------------|-----------------------|
||o------------------------|-----------------------|
||-------------------------|-----------------------|


               A5    G5               A5
  PM--|                       PM--|
  |-3-|                       |-3-| |3|
  E E E Q  +E  S S E E   +Q   E E E E Q   Q
|----------------------|---------------------------|
|----------------------|---------------------------|
|----------------------|---------------------------|
|-------9--(9)-7-7-7-5-|-(5)--------5s7---7--------|
|-------9--(9)-7-7-7-5-|-(5)--------5s7---7--------|
|-7-7-7-7--(7)-5-5-5-3-|-(3)--3-3-3-3s5---5--------|
|
|                             |-3-| |-3-| |-3-|
| W                       Q   E E E E E E E E E
|----------------------|---------------------------|
|----------------------|---------------------------|
|----------------------|------------------2-4-6----|
|----------------------|------------2-4-5-4-5-7----|
|----------------------|------2-4-5-4-5-7----------|
|----------------------|------3-5-7----------------|
                          Q   E E E E E E E E E
                              |-3-| |-3-| |-3-|


        B5     A5    G5      A5    D5    A5    B5
  PM--|
  |-3-|
  E E E Q  +E  S S E S S   E S S E S S E S S E E
|------------------------|-----------------------|
|------------------------|-----------------------|
|------------------------|---------7-7-7---------|
|-------9--(9)-7-7-7-5-5-|-5-7-7-7-7-7-7-7-7-7-9-|
|-------9--(9)-7-7-7-5-5-|-5-7-7-7-5-5-5-7-7-7-9-|
|-7-7-7-7--(7)-5-5-5-3-3-|-3-5-5-5-------5-5-5-7-|
|
| W                        W
|------------------------|-----------------------|
|------------------------|-----------------------|
|------------------------|-----------------------|
|------------------------|-----------------------|
|------------------------|-----------------------|
|------------------------|-----------------------|


               A5    G5               A5
  PM--|                       PM--|
  |-3-|                       |-3-| |3|
  E E E Q  +E  S S E E   +Q   E E E E Q   Q
|----------------------|------------------------||
|----------------------|------------------------||
|----------------------|------------------------||
|-------9--(9)-7-7-7-5-|-(5)--------5s7---7-----||
|-------9--(9)-7-7-7-5-|-(5)--------5s7---7-----||
|-7-7-7-7--(7)-5-5-5-3-|-(3)--3-3-3-3s5---5-----||
|
|                             |-3-| |-3-| |-3-|
| W                       Q   E E E E E E E E E
|----------------------|------------------------||
|----------------------|------------------------||
|----------------------|------------------2-4-6-||
|----------------------|------------2-4-5-4-5-7-||
|----------------------|------2-4-5-4-5-7-------||
|----------------------|------3-5-7-------------||
                          Q   E E E E E E E E E
                              |-3-| |-3-| |-3-|


 Bridge
  N.C.(D)                                             N.C.(F#)
  Gtrs I, II
  PM------------------------------------------------------------------------|
  |-3-| |-3-| |-3-| |-3-|   |-3-| |-3-| |-3-| |-3-|   |-3-| |-3-| |-3-| |-3-|
  E E E E E E E E E E E E   E E E E E E E E E E E E   E E E E E E E E E E E E
|-------------------------|-------------------------|-------------------------|
|-------------------------|-------------------------|-------------------------|
|-------------------------|-------------------------|-------------------------|
|-------------------------|-------------------------|-------------------------|
|-5-5-5-5-5-5-5-5-5-5-5-5-|-5-5-5-5-5-5-5-5-5-5-5-5-|-------------------------|
|-------------------------|-------------------------|-2-2-2-2-2-2-2-2-2-2-2-2-|


                            N.C.(G)
  PM------------------------------------------------------------------------|
  |-3-| |-3-| |-3-| |-3-|   |-3-| |-3-| |-3-| |-3-|   |-3-| |-3-| |-3-| |-3-|
  E E E E E E E E E E E E   E E E E E E E E E E E E   E E E E E E E E E E E E
|-------------------------|-------------------------|-------------------------|
|-------------------------|-------------------------|-------------------------|
|-------------------------|-------------------------|-------------------------|
|-------------------------|-------------------------|-------------------------|
|-------------------------|-------------------------|-------------------------|
|-2-2-2-2-2-2-2-2-2-2-2-2-|-3-3-3-3-3-3-3-3-3-3-3-3-|-3-3-3-3-3-3-3-3-3-3-3-3-|


  F#5                                           D5
     PM--|         PM|           PM|
     |-3-|      |-3--|        |-3--| |-3-|
  Q  E E E E E +E  E E   E E +E  E E E E E Q    W          +W
|----------------------|----------------------|----------|--------|
|----------------------|----------------------|----------|--------|
|----------------------|----------------------|-7--------|-(7)----|
|-4--------4-4-(4)-----|-4-4-(4)-----4-4-4-4--|-7--------|-(7)----|
|-4--------4-4-(4)-----|-4-4-(4)-----4-4-4-4--|-5--------|-(5)----|
|-2--2-2-2-2-2-(2)-2-2-|-2-2-(2)-2-2-2-2-2-2--|----------|--------|


  F#5                     G5
  W          +W           W          +W
|----------|------------|----------|--------|
|----------|------------|----------|--------|
|----------|------------|----------|--------|
|-4--------|-(4)--------|-5--------|-(5)----|
|-4--------|-(4)--------|-5--------|-(5)----|
|-2--------|-(2)--------|-3--------|-(3)----|


                         Chorus
                      $
  A5         Bb5          B5                                      G5   A5
                          Gtr I
  W          W            Q   a     +E   a      +E   +E    E Q    H    H
|----------|-----------||----21b22-(21)-21b22==(21)-(21)r\------|-----------|
|----------|----------o||---------------------------------------|-----------|
|----------|-----------||---------------------------------------|-----------|
|-7--------|-8---------||-9-------------------------------------|-5----7----|
|-7--------|-8--------o||-9-------------------------------------|-5----7----|
|-5--------|-6---------||-7-------------------------------------|-3----5----|
|                         W
|
|                         Gtr II
| W          W            Q   a     +E   a      +E   +E    E Q    W
|----------|-----------||---------------------------------------|-----------|
|----------|----------o||----17b19-(17)-17b19==(17)-(17)r\------|-----------|
|----------|-----------||---------------------------------------|-----------|
|----------|-----------||---------------------------------------|-----------|
|----------|----------o||---------------------------------------|-----------|
|----------|-----------||---------------------------------------|-----------|


  B5                                      G5   A5
  Q   a     +E   a      +E   +E    E Q    H    H
|----21b22-(21)-21b22==(21)-(21)r\------|-----------|
|---------------------------------------|-----------|
|---------------------------------------|-----------|
|-9-------------------------------------|-5----7----|
|-9-------------------------------------|-5----7----|
|-7-------------------------------------|-3----5----|
| W
|
| Q   a     +E   a      +E   +E    E Q    W
|---------------------------------------|-----------|
|----17b19-(17)-17b19==(17)-(17)r\------|-----------|
|---------------------------------------|-----------|
|---------------------------------------|-----------|
|---------------------------------------|-----------|
|---------------------------------------|-----------|


  B5                                      G5   A5
  Q   a     +E   a      +E   +E    E Q    H    H
|----21b22-(21)-21b22==(21)-(21)r\------|-----------|
|---------------------------------------|-----------|
|---------------------------------------|-----------|
|-9-------------------------------------|-5----7----|
|-9-------------------------------------|-5----7----|
|-7-------------------------------------|-3----5----|
| W
|
| Q   a     +E   a      +E   +E    E Q    W
|---------------------------------------|-----------|
|----17b19-(17)-17b19==(17)-(17)r\------|-----------|
|---------------------------------------|-----------|
|---------------------------------------|-----------|
|---------------------------------------|-----------|
|---------------------------------------|-----------|


                                              Guitar Solo
    To Coda
  B5         A5                                G5                E5
                                   PM-----|               PM---|    PM----|
                                   |--3---|               |-3--|    |--3--|
  W          W          +H.        E E    E      Q        E  E E Q  E E   E
|----------|----------|---------------------||--------------------------------|
|----------|----------|---------------------||--------------------------------|
|----------|----------|---------------------||-------------------9------------|
|-9--------|-7--------|-(7)-----------------||---5---------------9------------|
|-9--------|-7--------|-(7)-----------------||---5---------------7------------|
|-7--------|-5--------|-(5)--------0-0----0-||---3--------0--0-0----0-0---0---|
|
|                                                         ~~~~
|                                                                       |-3-|
| W          W           H     Q   E    E       +Q       +H         E   S S S
|----------|----------|---------------------||--------------------------------|
|----------|----------|-----------14---14---||-(14)b15--(14)------------------|
|----------|----------|-----------14---14---||-(14)b15--(14)------------------|
|----------|----------|---------------------||--------------------------------|
|----------|----------|---------------------||----------------------7-----7---|
|----------|----------|---------------------||--------------------------8---8-|


         G5          E5   F5            G5                      E5
               PM--|                              PM---------|
               |-3-|                              |-----3-----|
           Q   E E E   E    Q       E    Q        E        E  E  H
|-------------------------------------|----------------------------------------------------|
|-------------------------------------|----------------------------------------------------|
|-------------------------------------|--------------------------9-------------------------|
|----------5-----------2----3-------3-|--5-----------------------9-------------------------|
|----------5-----------2----3-------3-|--5-----------------------7-------------------------|
|----------3---0-0-0---0----1-------1-|--3--------0--------0--0----------------------------|
|
|          ~~~~~~~~~~~~~~~       ~~~~
|                                        |--3--|  |-----6-----|  |--3--|     |-----5-----|
|  a      +H          +E   +E   +E  E    E  E  E  T  T  S  E  E  S  S  S  E  S  S  S  S  S
|-------------------------------------|-12-14-15-14h15p14-12-------------------------------|
|-15b17==(15)--------(15)-(15)r(15)-x-|----------------------15-13h15p13s12-------------14-|
|-----------------------------------x-|----------------------------------------15-15-13----|
|-------------------------------------|-------------------------------------14-------------|
|-------------------------------------|----------------------------------------------------|
|-------------------------------------|----------------------------------------------------|


  F5                D5
   |-----3-----|
   Q      Q    Q     H
|--------------------------------------||
|--------------------------------------||
|--------------------7-----------------||
|--3------3----3-----7-----------------||
|--3------3----3-----5-----------------||
|--1------1----1-----------------------||
|
|  |--3---|
|  E  E   E  E    E  E  S  S  S  E.
|--------19s20s==22----21-21-21--------||
|-15h17/------------19-----------------||
|-------------------------------19\----||
|-----------------------xS====xS====xS=||
|-----------------------xS====xS====xS=||
|-----------------------xS====xS====xS=||
   H                 E  E     E     e


  A5               F#5           A5                F#5   G5
            PM---|       PM--|              PM---|
            |-3--|       |-3-|              |-3--|
  Q         E  E E Q     E E E   Q          E  E E  E    Q     E
|------------------------------|---------------------------------|
|------------------------------|---------------------------------|
|-2----------------------------|-2-------------------------------|
|-2----------------4-----------|-2------------------4----5-----5-|
|-0----------------4-----------|-0------------------4----5-----5-|
|-----------2--2-2-2-----2-2-2-|------------2--2-2--2----3-----3-|
|
|    \2.5___/                    \1.5/              \1.5
| Q  a     +Q.       +Q.         S     S E +Q      +Q      E   E
|------------------------------|---------------------------x-----|
|----2-----(2)-------(2)-------|---------------------------x/-14-|
|------------------------------|-2h====4p2-(2)-----(2)-----------|
|-x----------------------------|---------------------------------|
|-x----------------------------|---------------------------------|
|-x----------------------------|---------------------------------|


                     F#5                    G5                    A5
               PM--|
               |-3-|                         |-----3------|        |--------3---------|
           Q   E E E   H                     q    q       q        q       q          q
|-----------------------------------------|---------------------------------------------------||
|-----------------------------------------|---------------------------------------------------||
|----------2------------------------------|---------------------------------------------------||
|----------2-----------4------------------|--5----5-------5--------7-------7----------7-------||
|----------0-----------4------------------|--5----5-------5--------7-------7----------7-------||
|--------------2-2-2---2------------------|--3----3-------3--------5-------5----------5-------||
|
|                      |---3---|  |--3--|
|  a      +H          +E    E  E  E  E  E    e  e    S  S    S  S  S  S  S    S  S  S    S  S
|--------------------------------------17-|-16-17---16h17p==16p14-16h17p16p==14-16h17p==16p14-||
|-17b19==(17)--------(17)r-14----17-14----|---------------------------------------------------||
|-----------------------------16----------|---------------------------------------------------||
|-----------------------------------------|---------------------------------------------------||
|-----------------------------------------|---------------------------------------------------||
|-----------------------------------------|---------------------------------------------------||


  Moderately Fast Rock Q=155(s8=8)
  E5
  Gtr III
           W
           |
           /

           PM------------------------------------------
           S  S S S S S S S   S  S S S   S  S   S   S
|-----------------------------------------------------|
|-----------------------------------------------------|
|-----------------------------------------------------|
|-----------------------------------------------------|
|-----------------------------------------------------|
|----------0--0-0-0-0-0-0-0---0--0-0-0---0--0---0---0-|
|
|  a      +H                 +Q         +E     +S   S
|-19b21==(19)---------------(19)-------(19)r==(19)p17-|
|-----------------------------------------------------|
|-----------------------------------------------------|
|-----------------------------------------------------|
|-----------------------------------------------------|
|-----------------------------------------------------|


  +W                                        +W
   |                                         |
   /                                         /

 ------------------------------------------------------------------------------|
   S S S S   S    S S S S S S S S S  S S     S    S S S  S S S S S S S S S S S S
|----------------------------------------|------------------------------------------|
|----------------------------------------|------------------------------------------|
|----------------------------------------|------------------------------------------|
|----------------------------------------|------------------------------------------|
|----------------------------------------|------------------------------------------|
|--0-0-0-0---0----0-0-0-0-0-0-0-0-0--0-0-|---0----0-0-0--0-0-0-0-0-0-0-0-0-0-0-0----|
|
|            \1.5               /            \4.5
|  Q        +H                  E    E      +W
|-19-------(19)-----------------x--------|------------------------------------------|
|-----------------------------------12---|-(12)-------------------------------------|
|----------------------------------------|--16----------16--------------------------|
|----------------------------------------|---x-----------x--------------------------|
|----------------------------------------|--14----------14--------------------------|
|----------------------------------------|------------------------------------------|
                                             E      E    E   E   H


  +W
   |
   /

   PM----------------------------------
   S    S S S S S S S S S S S S S S S
|-------------------------------------|
|-------------------------------------|
|-------------------------------------|
|-------------------------------------|
|-------------------------------------|
|--0----0-0-0-0-0-0-0-0-0-0-0-0-0-0-0-|
|
|  \4.5
|  W
|-------------------------------------|
|--0----------------------------------|
|-------------------------------------|
|-------------------------------------|
|-------------------------------------|
|-------------------------------------|


  +W                                    +W
   |                                     |
   /                                     /

 ----------------------------------------------------------------------|
   S    S S S S S S S S S S S S S S S    S S S S S S S S S S S S S S S S
|-------------------------------------|----------------------------------|
|-------------------------------------|----------------------------------|
|-------------------------------------|----------------------------------|
|-------------------------------------|----------------------------------|
|-------------------------------------|----------------------------------|
|--0----0-0-0-0-0-0-0-0-0-0-0-0-0-0-0-|--0-0-0-0-0-0-0-0-0-0-0-0-0-0-0-0-|
|
|  \4.5
|  W                                     W
|-------------------------------------|----------------------------------|
|-------------------------------------|----------------------------------|
|-------------------------------------|----------------------------------|
|-------------------------------------|----------------------------------|
|-------------------------------------|----------------------------------|
|--2----------------------------------|----------------------------------|


  +W
   |
   /

   PM  PM---| PM----| PM---------------
   S   E.     Q       H
|-------------------------------------|
|-------------------------------------|
|-------------------------------------|
|--5h==7------------------------------|
|-------------------------------------|
|--0---0--0-0-0-0-0-0-0-0-0-0-0-0-0-0-|
|  S   S  S S S S S S S S S S S S S S
|
|  \4.5
|  H                  H
|-------------------------------------|
|-------------------------------------|
|-------------------------------------|
|--4----------------------------------|
|-------------------------------------|
|-------------------------------------|


                                     N.C.(E)
  +W                                 W
   |
   /

 --------------------------------|   PMPM---| PM----| PM------------|
   S S S S S S S S S S S S S S S S   S E.     Q       H
|----------------------------------|----------------------------------|
|----------------------------------|----------------------------------|
|----------------------------------|----------------------------------|
|----------------------------------|-4h5------------------------------|
|----------------------------------|----------------------------------|
|--0-0-0-0-0-0-0-0-0-0-0-0-0-0-0-0-|-0-0--0-0-0-0-0-0-0-0-0-0-0-0-0-0-|
|                                    S S  S S S S S S S S S S S S S S
|
|  W                                 W
|----------------------------------|----------------------------------|
|----------------------------------|----------------------------------|
|----------------------------------|----------------------------------|
|----------------------------------|----------------------------------|
|----------------------------------|----------------------------------|
|----------------------------------|----------------------------------|


  PM----------------------------|   PMPM---| PM----| PM----------------
  S S S S S S S S S S S S S S S S   S E.     Q       H
|---------------------------------|-----------------------------------|
|---------------------------------|-----------------------------------|
|---------------------------------|-----------------------------------|
|---------------------------------|-4h5-------------------------------|
|---------------------------------|-----------------------------------|
|-0-0-0-0-0-0-0-0-0-0-0-0-0-0-0-0-|-0-0--0-0-0-0-0-0-0-0-0-0--0-0-0-0-|
|                                   S S  S S S S S S S S S S  S S S S
|
| H               E   E   E   E     S S  S S S S S S E   E    E   E
|---------------------------------|-------------------------------8---|
|---------------------------------|-7-8--7---7-8-7---7---8---10-------|
|-----------------7---9---7---9---|--------9-------9------------------|
|---------------------------------|-----------------------------------|
|---------------------------------|-----------------------------------|
|---------------------------------|-----------------------------------|


 -------------------------------------|
  S S S S  S S   S   S S S S S  S S S S
|-----------------------------------------|
|-----------------------------------------|
|-----------------------------------------|
|-----------------------------------------|
|-----------------------------------------|
|-0-0-0-0--0-0---0---0-0-0-0-0--0-0-0-0---|
|
|          |---3---|
| E   E    E   E   E   E   E    E   E
|--------------7---8---7---8---10---8-----|
|-7---8---10------------------------------|
|-----------------------------------------|
|-----------------------------------------|
|-----------------------------------------|
|-----------------------------------------|


   PMPM---| PM----| PM--------------------------------------------------|
   S E.     Q       H                    S  S S S S S S S S S S S S S S S
|------------------------------------|------------------------------------|
|------------------------------------|------------------------------------|
|------------------------------------|------------------------------------|
|--4h5-------------------------------|------------------------------------|
|------------------------------------|------------------------------------|
|--0-0--0-0-0-0-0-0-0-0--0-0-0-0-0-0-|---0--0-0-0-0-0-0-0-0-0-0-0-0-0-0-0-|
|  S S  S S S S S S S S  S S S S S S
|
|  E    E   E   E   E    E   E   E      +W
|--7--------7-------7--------7---8---|------------------------------------|
|-12----8-------8-------10-----------|-(12)-------------------------------|
|-12---------------------------------|-(12)-------------------------------|
|------------------------------------|------------------------------------|
|------------------------------------|------------------------------------|
|------------------------------------|------------------------------------|
   W


  PM   PM---|  PM--------|  PM---------------------|
  S    E.      Q            H
|----------------------------------------------------|
|----------------------------------------------------|
|----------------------------------------------------|
|-0h===2---------------------------------------------|
|----------------------------------------------------|
|-0----0--0-0--0-----0-0-0--0-----0-0-0--0-----0-0-0-|
| S    S  S S  S     S S S  S     S S S  S     S S S
|
|                                        <
| \1.5/        \1.5/        \1.5/        \1.5/
| H                         Q            Q
|---------------------------------------19-----------|
|----------------------------------------------------|
|----------------------------------------------------|
|-5-----------(5)----------(5)----------(5)----------|
|-5-----------(5)----------(5)----------(5)----------|
|----------------------------------------------------|
  Q           +Q           +Q           +Q


    PM--------------------------------
    S  S S S S S S S S S S S S S S S
|------------------------------------|
|------------------------------------|
|------------------------------------|
|------------------------------------|
|------------------------------------|
|---0--0-0-0-0-0-0-0-0-0-0-0-0-0-0-0-|
|
|  +H.                       Q
|-(19)-------------------------------|
|------------------------------------|
|------------------------------------|
|---2------------x-------------------|
|---2------------x-------------------|
|---0------------x-------------------|
    Q.           E   H


 -------------------------------|   PMPM---| PM----| PM------------|
  S S S S S S S S S S S S S S S S   S E.     Q       H
|---------------------------------|----------------------------------|
|---------------------------------|----------------------------------|
|---------------------------------|----------------------------------|
|---------------------------------|-0h2------------------------------|
|---------------------------------|----------------------------------|
|-0-0-0-0-0-0-0-0-0-0-0-0-0-0-0-0-|-0-0--0-0-0-0-0-0-0-0-0-0-0-0-0-0-|
|                                   S S  S S S S S S S S S S S S S S
|
| W                                 W
|---------------------------------|----------------------------------|
|---------------------------------|----------------------------------|
|---------------------------------|----------------------------------|
|---------------------------------|----------------------------------|
|---------------------------------|----------------------------------|
|---------------------------------|----------------------------------|


   PM----------------------------------|
   S S S S S S S S   S     S S S S S S S
|----------------------------------------|
|----------------------------------------|
|----------------------------------------|
|----------------------------------------|
|----------------------------------------|
|--0-0-0-0-0-0-0-0---0-----0-0-0-0-0-0-0-|
|
|                    \0.5/
|  H                +H
|-19---------------(19)------------------|
|----------------------------------------|
|----------------------------------------|
|----------------------------------------|
|----------------------------------------|
|----------------------------------------|


    PM PM---| PM----| PM---------------------------------------------------|
    S  E.     Q       H                  S S S S S S S S   S  S S  S S S S S
|-------------------------------------|--------------------------------------|
|-------------------------------------|--------------------------------------|
|-------------------------------------|--------------------------------------|
|---4h=5------------------------------|--------------------------------------|
|-------------------------------------|--------------------------------------|
|---0--0--0-0-0-0-0-0-0-0-0-0-0-0-0-0-|--0-0-0-0-0-0-0-0---0--0-0--0-0-0-0-0-|
|   S  S  S S S S S S S S S S S S S S
|
|                                        <                      <
|  +Q         Q       H                  H                +E    Q.
|-(19)--------------------------------|--------------------------------------|
|-------------------------------------|-10---------------(10)---8------------|
|-------------------------------------|--------------------------------------|
|-------------------------------------|--------------------------------------|
|-------------------------------------|--------------------------------------|
|-------------------------------------|--------------------------------------|


  PMPM---| PM----| PM---------------
  S E.     Q       H
|----------------------------------|
|----------------------------------|
|----------------------------------|
|-5h7------------------------------|
|----------------------------------|
|-0-0--0-0-0-0-0-0-0-0-0-0-0-0-0-0-|
| S S  S S S S S S S S S S S S S S
|
| <
| E    E   E   E   E   E   E   E
|-7----5---7---8---7---5---7---8---|
|------5---5-----------5---5-------|
|-9--------------------------------|
|----------------------------------|
|----------------------------------|
|----------------------------------|
  W


 ------------------------------------|   PMPM----| PM----| PM------------|
   S  S S S S S S S  S  S  S S S S S S   S E.      Q       H
|--------------------------------------|-----------------------------------|
|--------------------------------------|-----------------------------------|
|--------------------------------------|-----------------------------------|
|--------------------------------------|-0h2-------------------------------|
|--------------------------------------|-----------------------------------|
|--0--0-0-0-0-0-0-0--0--0--0-0-0-0-0-0-|-0-0---0-0-0-0-0-0-0-0-0-0-0-0-0-0-|
|                                        S S   S S S S S S S S S S S S S S
|
|  E    E   E   E   +E     E   E   E     E     E   E   E   E   E   E   E
|--7----5---7---8---(8)---10---8---7---|-8---------------------------------|
|--------------------------------------|------10---8---7---------------7---|
|-(9)----------------------------------|-------------------9---7---9-------|
|--------------------------------------|-----------------------------------|
|--------------------------------------|-----------------------------------|
|--------------------------------------|-----------------------------------|
  +H                 H


  PM-----------------------------|
  S S S S S  S S S S S S S S S S S
|----------------------------------|
|----------------------------------|
|----------------------------------|
|----------------------------------|
|----------------------------------|
|-0-0-0-0-0--0-0-0-0-0-0-0-0-0-0-0-|
|
| E   E   H.
|----------------------------------|
|----------------------------------|
|-9---7---9------------------------|
|----------------------------------|
|----------------------------------|
|----------------------------------|


  PMPM---| PM----| PM----------------------------------------------|
  S E.     Q       H                 S S S S S S S S S S S S S S S S
|----------------------------------|---------------------------------|
|----------------------------------|---------------------------------|
|----------------------------------|---------------------------------|
|-4h5------------------------------|---------------------------------|
|----------------------------------|---------------------------------|
|-0-0--0-0-0-0-0-0-0-0-0-0-0-0-0-0-|-0-0-0-0-0-0-0-0-0-0-0-0-0-0-0-0-|
| S S  S S S S S S S S S S S S S S
|
| W                                  W
|----------------------------------|---------------------------------|
|----------------------------------|---------------------------------|
|----------------------------------|---------------------------------|
|----------------------------------|---------------------------------|
|----------------------------------|---------------------------------|
|----------------------------------|---------------------------------|


  PM  PM---| PM----|  PM-----------------
  S   E.     Q        H
|---------------------------------------|
|---------------------------------------|
|---------------------------------------|
|-4h==5---------------------------------|
|---------------------------------------|
|-0---0--0-0-0-0-0-0--0--0-0-0-0--0-0-0-|
| S   S  S S S S S S  S  S S S S  S S S
|
| \1.5
| H                  +Q        Q
|---------------------------------------|
|---------------------------------------|
|---------------------------------------|
|---------------------------------------|
|---------------------------------------|
|-0------------------(x)-------x/-------|


 -------------------------------|   PMPM---| PM----| PM------------|
  S S S S S S S S S S S S S S S S   S E.     Q       H
|---------------------------------|----------------------------------|
|---------------------------------|----------------------------------|
|---------------------------------|----------------------------------|
|---------------------------------|-0h2------------------------------|
|---------------------------------|----------------------------------|
|-0-0-0-0-0-0-0-0-0-0-0-0-0-0-0-0-|-0-0--0-0-0-0-0-0-0-0-0-0-0-0-0-0-|
|                                   S S  S S S S S S S S S S S S S S
|
| W                                 W
|---------------------------------|----------------------------------|
|---------------------------------|----------------------------------|
|---------------------------------|----------------------------------|
|---------------------------------|----------------------------------|
|---------------------------------|----------------------------------|
|---------------------------------|----------------------------------|


  PM--------------------------------------------------------------------
  S  S S S S S S S S S S S S S S S    S  S S S S S S S S S S S S S S S
|----------------------------------|-----------------------------------|
|----------------------------------|-----------------------------------|
|----------------------------------|-----------------------------------|
|----------------------------------|-----------------------------------|
|----------------------------------|-----------------------------------|
|-0--0-0-0-0-0-0-0-0-0-0-0-0-0-0-0-|--0--0-0-0-0-0-0-0-0-0-0-0-0-0-0-0-|
|
| W                                   W
|----------------------------------|--x/-------------------------------|
|----------------------------------|--x/-------------------------------|
|----------------------------------|--x--------------------------------|
|-x/-------------------------------|-17--------------------------------|
|-x/-------------------------------|-17--------------------------------|
|-x/-------------------------------|-15--------------------------------|
                                      W


 ------------------------------------|
    S    S S S S S S S S S S S S S S S
|--------------------------------------|
|--------------------------------------|
|--------------------------------------|
|--------------------------------------|
|--------------------------------------|
|---0----0-0-0-0-0-0-0-0-0-0-0-0-0-0-0-|
|
|   \3.5
|   W
|--------------------------------------|
|--12----------------------------------|
|--------------------------------------|
|-(17)---------------------------------|
|-(17)---------------------------------|
|-(15)---------------------------------|
   +W


   PM------------------------------------------
   S   S   S   S   S    S S S S S S S S S S S
|---------------------------------------------|
|---------------------------------------------|
|---------------------------------------------|
|---------------------------------------------|
|---------------------------------------------|
|--0---0---0---0---0----0-0-0-0-0-0-0-0-0-0-0-|
|
|  \1/     \1/     \4.5
|  PM      PM      PM
|  E      +E      +H.
|-19-----(19)----(19)-------------------------|
|---------------------------------------------|
|---------------------------------------------|
|---------------------------------------------|
|---------------------------------------------|
|--0-------0-------0--------------------------|
   E       E       E      E   H


 ------------------------------------|
   S S  S S   S  S S S S S S S S S S S   W
|--------------------------------------|------|
|--------------------------------------|------|
|--------------------------------------|------|
|--------------------------------------|------|
|--------------------------------------|------|
|--0-0--0-0---0--0-0-0-0-0-0-0-0-0-0-0-|------|
|
|  E    E    +H.                         W
|-17---19---(19)-----------------------|------|
|--------------------------------------|------|
|--------------------------------------|------|
|--------------------------------------|------|
|--------------------------------------|------|
|--------------------------------------|------|


                         Outro-Solo
D.S. al Cod&
              A5                B5                      G5       A5
  W           W                   W                       H      H
|----------||----------||-----------------------------|------------------------|
|----------||----------||-----------------------------|------------------------|
|----------||----------||-----------------------------|------------------------|
|----------||-7--------||---------9-------------------|---5------7-------------|
|----------||-7--------||---------9-------------------|---5------7-------------|
|----------||-5--------||---------7-------------------|---3------5-------------|
|
|                                             ~~~~
|                                                         |-3--|
| W           W            a     +Q    a     +H.          Q q  q S  S S  S  Q
|----------||----------||-----------------------------|-----9-10-9h10p9--------|
|----------||----------||-10b12-(10)--10b12-(10)------|-/12-------------12-10--|
|----------||----------||-----------------------------|------------------------|
|----------||----------||-----------------------------|------------------------|
|----------||----------||-----------------------------|------------------------|
|----------||----------||-----------------------------|------------------------|


         B5                      G5      A5
           W                     H       H
|------------------------------|------------------|
|------------------------------|------------------|
|------------------------------|------------------|
|----------9-------------------|-5-------7--------|
|----------9-------------------|-5-------7--------|
|----------7-------------------|-3-------5--------|
|
|          ~~~~~~~~~~~                   ~
|  a      +H      +Q    +Q       E E E E Q  +Q
|------------------------------|------------------|
|-10b12==(10)----(10)--(10)r\--|---7-5------------|
|------------------------------|-------7-7--(7)\--|
|------------------------------|------------------|
|------------------------------|------------------|
|------------------------------|------------------|


  B5                              G5                A5
  W                                H                 H
|-------------------------------|---------------------------------------|
|-------------------------------|---------------------------------------|
|-------------------------------|---------------------------------------|
|-9-----------------------------|--5-----------------7------------------|
|-9-----------------------------|--5-----------------7------------------|
|-7-----------------------------|--3-----------------5------------------|
|
| |-3-|  |--3--|  |--3--| |-3-|    |--3--|  |--3--|  |--3--|  |--3--|
| E E E  E  E  E  E  E  E E E E    E  E  E  E  E  E  E  E  E  E  E  E
|-------------------------------|---------------------------------------|
|-------------------------------|-------------------10-10-10-12-12-12---|
|-------------------------9-9-9-|-11-11-11-12-12-12---------------------|
|-9-9-9-11-11-11-12-12-12-------|---------------------------------------|
|-------------------------------|---------------------------------------|
|-------------------------------|---------------------------------------|


  B5                                 A5
                                      |--3--|  |--3--|
  W                                   E  E  E  E  E  E  Q  Q
|----------------------------------|--------------------------|
|----------------------------------|--------------------------|
|----------------------------------|--------------------------|
|-9--------------------------------|--7--7--7--7--7--7--7-----|
|-9--------------------------------|--7--7--7--7--7--7--7-----|
|-7--------------------------------|--5--5--5--5--5--5--5-----|
|
|                                                       ~~
| |-3-|  |--3--|  |--3--|  |--3--|    |--3--|  |--3--|
| E E E  E  E  E  E  E  E  E  E  E    E  E  E  E  E  E  H
|-9-9-9-10-10-10-12-12-12-14-14-14-|-14-14-14-14-15p14-12-----|
|----------------------------------|--------------------------|
|----------------------------------|--------------------------|
|----------------------------------|--------------------------|
|----------------------------------|--------------------------|
|----------------------------------|--------------------------|


         B5                    G5           A5
           W                    H            H
|----------------------------|----------------------------------------------|
|----------------------------|----------------------------------------------|
|----------------------------|----------------------------------------------|
|----------9-----------------|--5------------7------------------------------|
|----------9-----------------|--5------------7------------------------------|
|----------7-----------------|--3------------5------------------------------|
|
|                               |----3----|  |-----3------|        |-3--|
|  a      +H.       +E   +E     Q      q  q  E      +E   +E       +E   +Q
|----------------------------|--------21-22-21b22==(21)r(21)b22==(21)r(21)--|
|-22b24==(22)------(22)r(22)-|-22pb24---------------------------------------|
|----------------------------|----------------------------------------------|
|----------------------------|----------------------------------------------|
|----------------------------|----------------------------------------------|
|----------------------------|----------------------------------------------|


         B5                    G5                A5
           W                    H                  H
|----------------------------|---------------------------|
|----------------------------|---------------------------|
|----------------------------|---------------------------|
|----------9-----------------|--5------------------7-----|
|----------9-----------------|--5------------------7-----|
|----------7-----------------|--3------------------5-----|
|
|                                              ~~~~~~~
|  a      +H      +Q    +Q      E  S  S  S  S  E  +H
|----------------------------|---------------------------|
|-22b24==(22)----(22)r=(22)--|-20-22p19-20p19------------|
|----------------------------|----------------21-(21)----|
|----------------------------|---------------------------|
|----------------------------|---------------------------|
|----------------------------|---------------------------|


  B5                                 G5                       A5
   W                                  H                         H
|----------------------------------|----------------------------------|
|----------------------------------|----------------------------------|
|----------------------------------|----------------------------------|
|--9-------------------------------|--5-------------------------7-----|
|--9-------------------------------|--5-------------------------7-----|
|--7-------------------------------|--3-------------------------5-----|
|
|                                                               ~~~~
|  |--3--|  |3-|  |--3--|  |--3--|             |--3---|
|  E  E  E  E  Q  E  E  E  E  E  E    Q       +E   E  E  a     +H
|----------------19h21h22-19h21h22-|-21pb22r=(21)-22p19---------------|
|----------19h20-------------------|--------------------22b24-(22)----|
|-18h19h21-------------------------|----------------------------------|
|----------------------------------|----------------------------------|
|----------------------------------|----------------------------------|
|----------------------------------|----------------------------------|


  B5                                        A5
   W                                          W
|-----------------------------------------|------------------------|
|-----------------------------------------|------------------------|
|-----------------------------------------|------------------------|
|--9--------------------------------------|---7--------------------|
|--9--------------------------------------|---7--------------------|
|--7--------------------------------------|---5--------------------|
|
|  |--3--|  |--3--|  |--3--|                            |---3----|
|  E  E  E  E  E  E  E  E  E  a      +Q      +H.       +E   +E   E
|-19-19-19-21-21-21-22-22-22-22b26==(22)--|-(22)------(22)r(22)-22-|
|-----------------------------------------|------------------------|
|-----------------------------------------|------------------------|
|-----------------------------------------|------------------------|
|-----------------------------------------|------------------------|
|-----------------------------------------|------------------------|


  B5
   W
|----------------------------------------------|
|----------------------------------------------|
|----------------------------------------------|
|--9-------------------------------------------|
|--9-------------------------------------------|
|--7-------------------------------------------|
|
|  E  S  S  S  S  S  S  S  S  S  S  S  S  S  S
|-22-22p21-17h19p17----17-17-------17----------|
|-------------------20-------19-20----19----17-|
|----------------------------------------19----|
|----------------------------------------------|
|----------------------------------------------|
|----------------------------------------------|


  G5                   A5           B5
   H                    H            W
|---------------------------------|-------------------------|
|---------------------------------|-------------------------|
|---------------------------------|-------------------------|
|--5--------------------7---------|--9----------------------|
|--5--------------------7---------|--9----------------------|
|--3--------------------5---------|--7----------------------|
|
|                                    \1/   \1/   \1/   \1/
|                       ~~
|  |--3--|
|  E  E  E  S  S  S  S  Q   +Q       Q     Q     Q     Q
|---------------------------------|-------------------------|
|---------------------------------|-12----14----15----17----|
|-18-19-16-19-18----16-16--(16)\--|-------------------------|
|----------------19---------------|-------------------------|
|---------------------------------|-------------------------|
|---------------------------------|-------------------------|


  G5          A5                  B5
   H           H                   W
|-------------------------------|-------------------------------------------|
|-------------------------------|-------------------------------------------|
|-------------------------------|-------------------------------------------|
|--5-----------7----------------|--9----------------------------------------|
|--5-----------7----------------|--9----------------------------------------|
|--3-----------5----------------|--7----------------------------------------|
|
|  \1/   \1/   \1/   \1/   \1/                             \1/   \1/   \1/
|                                  |--3--|  |--3--|
|  Q     Q     E    +E    +Q       E  E  E  E  E  E  +E   +E    +E    +E
|-14----15----17---(17)--(17)---|-19p17-15-14-15p14-(14)-(14)--(14)--(14)---|
|-------------------------------|-------------------------------------------|
|-------------------------------|-------------------------------------------|
|-------------------------------|-------------------------------------------|
|-------------------------------|-------------------------------------------|
|-------------------------------|-------------------------------------------|


  G5       A5                 B5           A5
                                            |-3--| |-3-|
   H        H                  W            E  E E E E E Q  Q
|---------------------|------------------|---------------------*|
|---------------------|------------------|---------------------*|
|---------------------|------------------|---------------------*|
|--5--------7---------|--------9---------|--7--7-7-7-7-7-7-----*|
|--5--------7---------|--------9---------|--7--7-7-7-7-7-7-----*|
|--3--------5---------|--------7---------|--5--5-5-5-5-5-5-----*|
|
|                                                        ~
|  |--3--|                                  |----3-----|
|  Q  Q  Q  Q   +Q      a     +W           +Q    Q   E E H
|-14-14-14------------|------------------|---------------------*|
|----------17--(17)\--|------------------|---------------------*|
|---------------------|-9b11==(9)r=======|=(9)---7---6h7p6-----*|
|---------------------|------------------|---------------------*|
|---------------------|------------------|---------------------*|
|---------------------|------------------|---------------------*|



Duration Legend
---------------
W - whole; H - half; Q - quarter; E - 8th; S - 16th; T - 32nd; X - 64th; a - acciaccatura
+ - note tied to previous; . - note dotted; .. - note double dotted
Uncapitalized letters represent notes that are staccato (1/2 duration)
Irregular groupings are notated above the duration line
Duration letters will always appear directly above the note/fret number it represents the
duration for.  Duration letters with no fret number below them represent rests.  Multi-
bar rests are notated in the form Wxn, where n is the number of bars to rest for.  Low
melody durations appear below the staff

Tablature Legend
----------------
 h   - hammer-on
 p   - pull-off
 b   - bend
 pb  - pre-bend
 r   - bend release (if no number after the r, then release immediately)
 /\  - slide into or out of (from/to "nowhere")
 s   - legato slide
 S   - shift slide
 - natural harmonic
[n]  - artificial harmonic
n(n) - tapped harmonic
 ~   - vibrato
 tr  - trill
 T   - tap
 TP  - trem. picking
 PM  - palm muting
\n/  - tremolo bar dip; n = amount to dip
 \n  - tremolo bar down
 n/  - tremolo bar up
/n\  - tremolo bar inverted dip
 =   - hold bend; also acts as connecting device for hammers/pulls
 <> - volume swell (louder/softer)
 x   - on rhythm slash represents muted slash
 o   - on rhythm slash represents single note slash

Misc Legend
-----------
 |  - bar
||  - double bar
||o - repeat start
o|| - repeat end
*|  - double bar (ending)
 :  - bar (freetime)
 $  - Segno
 &  - Coda
Tempo markers -  = BPM(8/16=s8/s16), where s8 = swing 8ths, s16 = swing 16ths


            
            
Suggest correction
Creating personal tab
Creating personal tab
You can edit any tab online and save it as your Personal.

You can edit, replace or remove any tab part or add personal notes – all changes will be seen only by you.

Personal tabs can be accessed anytime from any device, even offline.
Learn more »
Give kudos to tab author, rate the tab!
1 2 3 4 5
comments
print report bad tab
guest
You may want to rate the tab now too:
select rating
Wanna post a correction for this tab? Suggest correction