Oops, an error
Loading. Please wait.

Future World tab

version 4
version 4

Whole song

Interactive

1,601 views 1 this week
no commentswrite comment
1 2 3 4 5
1 last vote to show rating
add to favorites
×
Save as Personal and add changes to this tab that will be seen only by you. Learn more ›
×
You can save this tab as Personal to edit and correct it or add notes. All changes will be seen only by you. Learn more »
launch autoscroll
font size
0
reset
how to read this tab
guitar tuner
backing track
0:00
0:00
edit
Autoscroll
slow
fast
+/-
esc
set tempo
stop
#----------------------------------PLEASE NOTE---------------------------------#
#This file is the author's own work and represents their interpretation of the #
#song. You may only use this file for private study, scholarship, or research. #
#------------------------------------------------------------------------------#

FUTURE WORLD
As recorded by Helloween
(From the 1987 Album KEEPER OF THE SEVEN KEYS PT. 1)

Transcribed by Asmogriff (ComfortablyDumb)
        

Words and Music by Kai Hansen
Arranged by Helloween

Gtr I (E A D G B E) - 'Dist 1'
Gtr II (E A D G B E) - 'Dist 2'
Gtr III (E A D G B E) - 'Dist 3'
Gtr IV (E A D G B E) - 'w/ Flanger'

   Intro
    Q=193
    N.C.
   4/4
    Gtr I
    PM-----------------------------------
    E E E E E E E E   E E E E E E E E
||------------------|------------------||
||o-----------------|-----------------o||
||------------------|-------9-7--------||
||----9-7-9---9-7-9-|---9-7-----9-7-9--||
||o-7-------7-------|-7---------------o||
||------------------|------------------||
|
|   Gtr II
|   W                 W
||------------------|------------------||
||o-----------------|-----------------o||
||------------------|------------------||
||------------------|------------------||
||o-----------------|-----------------o||
||------------------|------------------||


      E5
 ---------------------------------------|
      E E E E E E E E    E  E E E E E E E
|-||------------------|-------------------|
|-||o-----------------|-------------------|
|-||------------------|---------9-7-------|
|-||----9-7-9---9-7-9-|-----9-7-----9-7-9-|
|-||o-7-------7-------|--7----------------|
|-||------------------|-------------------|
|
|     W                 +W
|-||------------------|-------------------|
|-||o-----------------|-------------------|
|-||--9---------------|-(9)---------------|
|-||--9---------------|-(9)---------------|
|-||o-7---------------|-(7)---------------|
|-||------------------|-------------------|


  G5                                      D5
   PM-----------------------------------------------------------------------|
   E E E E E E E E     E  E E E E E E E   E E E E E E E E    E  E E E E E E E
|------------------|--------------------|-----------------|-------------------|
|------------------|--------------------|-----------------|-------------------|
|------------------|----------9-7-------|-----------------|---------9-7-------|
|----9-7-9---9-7-9-|------9-7-----9-7-9-|---9-7-9---9-7-9-|-----9-7-----9-7-9-|
|--7-------7-------|---7----------------|-7-------7-------|--7----------------|
|------------------|--------------------|-----------------|-------------------|
|
|  W                  +W                  W                 +W
|------------------|--------------------|-----------------|-------------------|
|------------------|--------------------|-----------------|-------------------|
|-12---------------|-(12)---------------|-7---------------|-(7)---------------|
|-12---------------|-(12)---------------|-7---------------|-(7)---------------|
|-10---------------|-(10)---------------|-5---------------|-(5)---------------|
|------------------|--------------------|-----------------|-------------------|


                   1.                      2.
  E5                              D5                      D5
  PM----------------------------------------------------------|
  E E E E E E E E    E  E E E  E  E E E      E  E E E  E  E E E
|-----------------|----------------------||---------------------|
|-----------------|---------------------o||---------------------|
|-----------------|---------9--7---------||---------------7-7-7-|
|---9-7-9---9-7-9-|-----9-7-------9-7-9--||-----9-7-9-----7-7-7-|
|-7-------7-------|--7------------------o||--7---------7--5-5-5-|
|-----------------|----------------------||---------------------|
|
| W                 +H        +E  E E E      H        +E  E E E
|-----------------|----------------------||---------------------|
|-----------------|---------------------o||---------------------|
|-9---------------|-(9)-------(9)-7-7-7--||-(9)-------(9)-7-7-7-|
|-9---------------|-(9)-------(9)-7-7-7--||-(9)-------(9)-7-7-7-|
|-7---------------|-(7)-------(7)-5-5-5-o||-(7)-------(7)-5-5-5-|
|-----------------|----------------------||---------------------|


 Verse
  E5                                    C5                  E5
  PM------------------------------------------------------------------------|
  E E E E E E E E   E E E E E E E S S   E E E E E E E S S   E E E E E E E S S
|-----------------|-------------------|-------------------|--------------------|
|-----------------|-------------------|-------------------|--------------------|
|-----------------|-------------------|-------------------|--------------------|
|-9-9-9-9-9-9-9-9-|-9-9-9-9-9-9-9-9-9-|-5-5-5-5-5-5-5-5-5-|-9-9-9-9-9-9-9-9-9--|
|-7-7-7-7-7-7-7-7-|-7-7-7-7-7-7-7-7-7-|-3-3-3-3-3-3-3-3-3-|-7-7-7-7-7-7-7-7-7--|
|-----------------|-------------------|-------------------|--------------------|
|
| E E Q   H         W                   W                   W
|-----------------|-------------------|-------------------|--------------------|
|-----------------|-------------------|-------------------|--------------------|
|-9---------------|-------------------|-------------------|--------------------|
|-9---------------|-------------------|-------------------|--------------------|
|-7---------------|-------------------|-------------------|--------------------|
|-----------------|-------------------|-------------------|--------------------|


  C5                  E5                  C5   B5     E5        D5
  PM----------------------------------|               PM------|
  E E E E E E E S S   E E E E E E E S S   H    H      E E E E E E E E
|-------------------|-------------------|-----------|-------------------|
|-------------------|-------------------|-----------|-------------------|
|-------------------|-------------------|-5----4----|-----------7-7-7---|
|-5-5-5-5-5-5-5-5-5-|-9-9-9-9-9-9-9-9-9-|-5----4----|-9-9-9-9-9-7-7-7---|
|-3-3-3-3-3-3-3-3-3-|-7-7-7-7-7-7-7-7-7-|-3----2----|-7-7-7-7-7-5-5-5---|
|-------------------|-------------------|-----------|-------------------|
|
| W                   W                   H    H      H       E E E E
|-------------------|-------------------|-----------|-------------------|
|-------------------|-------------------|-----------|-------------------|
|-------------------|-------------------|-5----4----|-----------7-7-7---|
|-------------------|-------------------|-5----4----|-----------7-7-7---|
|-------------------|-------------------|-3----2----|-----------5-5-5---|
|-------------------|-------------------|-----------|-------------------|


  E5                                 C5                   E5
  Gtrs I, II
  E E E E E E E E   E E E E E E Q    E E E E E E Q    E E E E E E Q
|-----------------|----------------|----------------|----------------|
|-----------------|----------------|----------------|----------------|
|-9---9---9-9-9-9-|-x-x-9---9-9-9--|-5---5---5-5-5--|-x-x-9---9-9-9--|
|-9---9---9-9-9-9-|-x-x-9---9-9-9--|-5---5---5-5-5--|-x-x-9---9-9-9--|
|-7---7---7-7-7-7-|-x-x-7---7-7-7--|-3---3---3-3-3--|-x-x-7---7-7-7--|
|-----------------|----------------|----------------|----------------|


  C5                   E5           C5   B5
  E E E E E E Q    E E E E E E Q    H    H
|----------------|----------------|-----------|
|----------------|----------------|-----------|
|-5---5---5-5-5--|-x-x-9---9-9-9--|-5----4----|
|-5---5---5-5-5--|-x-x-9---9-9-9--|-5----4----|
|-3---3---3-3-3--|-x-x-7---7-7-7--|-3----2----|
|----------------|----------------|-----------|


  E5
  E E E E E E E E   E E E E E E E E
|-----------------|-----------------|
|-----------------|-----------------|
|-9---9---9-9-9-9-|-x-x-9---9-9-9---|
|-9---9---9-9-9-9-|-x-x-9---9-9-9---|
|-7---7---7-7-7-7-|-x-x-7---7-7-7---|
|-----------------|-----------------|


   Pre-Chorus
    $
    G5                D5                  A5                    G5 F#5E5
    PM------------------------------|
    E E E E E E E E   E E E E E E E E  3x Q  E E E E E E   +Q   Q  Q  Q
||------------------|------------------||----------------|---------------|
||o-----------------|-----------------o||----------------|---------------|
||------------------|-----7-------7----||----------------|---------------|
||------5-------5---|---7---7---7---7--||-7--x-x-7---7-7-|-(7)-----------|
||o---5---5---5---5-|-5-------5-------o||-7--x-x-7---7-7-|-(7)--5--4--2--|
||--3-------3-------|------------------||-5--x-x-5---5-5-|-(5)--3--2--0--|


  G5                D5                G5                D5
  PM------------------------------------------------------------------|
  E E E E E E E E   E E E E E E E E   E E E E E E E E   E E E E E E E E
|-----------------|-----------------|-----------------|------------------|
|-----------------|-----------------|-----------------|------------------|
|-----------------|-----7-------7---|-----------------|-----7-------7----|
|-----5-------5---|---7---7---7---7-|-----5-------5---|---7---7---7---7--|
|---5---5---5---5-|-5-------5-------|---5---5---5---5-|-5-------5--------|
|-3-------3-------|-----------------|-3-------3-------|------------------|


  G5                A5                D5
  PM------------------------------|      PM--------|
  E E E E E E E E   E E E E E E E E   Q  E E E E E E   E E Q  H
|-----------------|-----------------|----------------|-------------|
|-----------------|-----------------|----------------|-------------|
|-----------------|-----------------|-7--------------|-7-----------|
|-----5-------5---|-----7-------7---|-7--------------|-7-----------|
|---5---5---5---5-|---7---7---7---7-|-5--5-5-5-5-5-5-|-5-----------|
|-3-------3-------|-5-------5-------|----------------|-------------|


   Chorus
    $$                        To Dbl. Coda
    E5                      C5   D5     E5
    W          +W           H    H      W
||-----------|------------|-----------|-------|
||o----------|------------|-----------|-------|
||--9--------|-(9)--------|-5----7----|-9-----|
||--9--------|-(9)--------|-5----7----|-9-----|
||o-7--------|-(7)--------|-3----5----|-7-----|
||-----------|------------|-----------|-------|


            1.                                            2.
                                                             To Coda
  C5         A5         B5                    A5 G#5F#5    B5
  W          W          Q  E E E E E E   +Q   Q  Q  Q      E E Q  H
|----------|----------|----------------|----------------||-------------|
|----------|----------|----------------|---------------o||-------------|
|-5--------|----------|----------------|----------------||-4-----------|
|-5--------|-7--------|-9--x-x-9---9-9-|-(9)------------||-4-----------|
|-3--------|-7--------|-9--x-x-9---9-9-|-(9)--7--6--4--o||-2-----------|
|----------|-5--------|-7--x-x-7---7-7-|-(7)--5--4--2---||-------------|


 Bridge
  E5                                    G5
  Gtr I
  PM------------------------------------------------------------------------|
  E E E E E E E E    E  E E E E E E E    E E E E E E E E     E  E E E E E E E
|-----------------|-------------------|------------------|--------------------|
|-----------------|-------------------|------------------|--------------------|
|-----------------|---------9-7-------|------------------|----------9-7-------|
|---9-7-9---9-7-9-|-----9-7-----9-7-9-|----9-7-9---9-7-9-|------9-7-----9-7-9-|
|-7-------7-------|--7----------------|--7-------7-------|---7----------------|
|-----------------|-------------------|------------------|--------------------|
|
| Gtr II
| W                 +W                   W                  +W
|-----------------|-------------------|------------------|--------------------|
|-----------------|-------------------|------------------|--------------------|
|-9---------------|-(9)---------------|-12---------------|-(12)---------------|
|-9---------------|-(9)---------------|-12---------------|-(12)---------------|
|-7---------------|-(7)---------------|-10---------------|-(10)---------------|
|-----------------|-------------------|------------------|--------------------|


  D5                                    E5                              D5
  PM------------------------------------------------------------------------|
  E E E E E E E E    E  E E E E E E E   E E E E E E E E    E  E E E  E  E E E
|-----------------|-------------------|-----------------|---------------------|
|-----------------|-------------------|-----------------|---------------------|
|-----------------|---------9-7-------|-----------------|---------------7-7-7-|
|---9-7-9---9-7-9-|-----9-7-----9-7-9-|---9-7-9---9-7-9-|-----9-7-9-----7-7-7-|
|-7-------7-------|--7----------------|-7-------7-------|--7---------7--5-5-5-|
|-----------------|-------------------|-----------------|---------------------|
|
| W                 +W                  W                 +H        +E  E E E
|-----------------|-------------------|-----------------|---------------------|
|-----------------|-------------------|-----------------|---------------------|
|-7---------------|-(7)---------------|-9---------------|-(9)-------(9)-7-7-7-|
|-7---------------|-(7)---------------|-9---------------|-(9)-------(9)-7-7-7-|
|-5---------------|-(5)---------------|-7---------------|-(7)-------(7)-5-5-5-|
|-----------------|-------------------|-----------------|---------------------|


 Verse
  E5                      C5         E5
  Gtr IV
  W          +W           W          W
|----------|------------|----------|------|
|----------|------------|----------|------|
|-9--------|-(9)--------|-5--------|-9----|
|-9--------|-(9)--------|-5--------|-9----|
|-7--------|-(7)--------|-3--------|-7----|
|----------|------------|----------|------|


  C5         E5         C5   B5     E5       D5
                                             Gtrs I, II
  W          W          H    H      H    +E  E E E
|----------|----------|-----------|----------------|
|----------|----------|-----------|----------------|
|-5--------|-9--------|-5----4----|-9----(9)-7-7-7-|
|-5--------|-9--------|-5----4----|-9----(9)-7-7-7-|
|-3--------|-7--------|-3----2----|-7----(7)-5-5-5-|
|----------|----------|-----------|----------------|


  E5                                 C5                   E5
  E E E E E E E E   E E E E E E Q    E E E E E E Q    E E E E E E Q
|-----------------|----------------|----------------|----------------|
|-----------------|----------------|----------------|----------------|
|-9---9---9-9-9-9-|-x-x-9---9-9-9--|-5---5---5-5-5--|-x-x-9---9-9-9--|
|-9---9---9-9-9-9-|-x-x-9---9-9-9--|-5---5---5-5-5--|-x-x-9---9-9-9--|
|-7---7---7-7-7-7-|-x-x-7---7-7-7--|-3---3---3-3-3--|-x-x-7---7-7-7--|
|-----------------|----------------|----------------|----------------|


  C5                   E5           C5   B5
  E E E E E E Q    E E E E E E Q    H    H
|----------------|----------------|-----------|
|----------------|----------------|-----------|
|-5---5---5-5-5--|-x-x-9---9-9-9--|-5----4----|
|-5---5---5-5-5--|-x-x-9---9-9-9--|-5----4----|
|-3---3---3-3-3--|-x-x-7---7-7-7--|-3----2----|
|----------------|----------------|-----------|


                      D.S. al Coda
  E5
  E E E E E E E E   E E E E E E E E
|-----------------|-----------------|
|-----------------|-----------------|
|-9---9---9-9-9-9-|-x-x-9---9-9-9---|
|-9---9---9-9-9-9-|-x-x-9---9-9-9---|
|-7---7---7-7-7-7-|-x-x-7---7-7-7---|
|-----------------|-----------------|


 Interlude
  &
  E5
  Gtr I
  PM-------------------------------------
  E E E E E E E E    E  E E E E E E S S
|-----------------|---------------------|
|-----------------|---------------------|
|-----------------|---------------------|
|-9-9-9-9-9-9-9-9-|--9--9-9-9-9-9-9-9-9-|
|-7-7-7-7-7-7-7-7-|--7--7-7-7-7-7-7-7-7-|
|-----------------|---------------------|
|
| Gtr II
| >
| W                 +W
|-----------------|---------------------|
|-----------------|---------------------|
|-9---------------|-(9)-----------------|
|-9---------------|-(9)-----------------|
|-7---------------|-(7)-----------------|
|-----------------|---------------------|


  G5
 -----------------------------------------------------|
   E   E  E  E  E  E  E  E    E   E  E  E  E  E  E  S  S
|--------------------------|-------------------------------|
|--------------------------|-------------------------------|
|--------------------------|-------------------------------|
|-12--12-12-12-12-12-12-12-|-12--12-12-12-12-12-12-12-12---|
|-10--10-10-10-10-10-10-10-|-10--10-10-10-10-10-10-10-10---|
|--------------------------|-------------------------------|
|
| +W                         +W
|--------------------------|-------------------------------|
|--------------------------|-------------------------------|
|-(9)----------------------|-(9)---------------------------|
|-(9)----------------------|-(9)---------------------------|
|-(7)----------------------|-(7)---------------------------|
|--------------------------|-------------------------------|


  E5
  PM---------------------------------------
  E E E E E E E E    E  E E E E E S S S S
|-----------------|-----------------------|
|-----------------|-----------------------|
|-----------------|-----------------------|
|-9-9-9-9-9-9-9-9-|--9--9-9-9-9-9-9-9-9-9-|
|-7-7-7-7-7-7-7-7-|--7--7-7-7-7-7-7-7-7-7-|
|-----------------|-----------------------|
|
| >
| W                 +W
|-----------------|-----------------------|
|-----------------|-----------------------|
|-9---------------|-(9)-------------------|
|-9---------------|-(9)-------------------|
|-7---------------|-(7)-------------------|
|-----------------|-----------------------|


  G5
 -----------------------------------------------------|
   E   E  E  E  E  E  E  E    E   E  E  E  E  E  E  S  S
|--------------------------|------------------------------|
|--------------------------|------------------------------|
|--------------------------|------------------------------|
|-12--12-12-12-12-12-12-12-|-12--12-12-12-12-12-12-12-12--|
|-10--10-10-10-10-10-10-10-|-10--10-10-10-10-10-10-10-10--|
|--------------------------|------------------------------|
|
| +W                         +W
|--------------------------|------------------------------|
|--------------------------|------------------------------|
|-(9)----------------------|-(9)--------------------------|
|-(9)----------------------|-(9)--------------------------|
|-(7)----------------------|-(7)--------------------------|
|--------------------------|------------------------------|


                              1.
    B5
    Gtrs I, II
    Q  Q  Q  Q    Q  Q  H      Q  Q  H      W
||--------------|------------|------------|-------||
||o-------------|------------|------------|------o||
||--4-----4-----|-4----------|-4----------|-------||
||--4-----4-----|-4----------|-4----------|-------||
||o-2-----2-----|-2----------|-2----------|------o||
||--------------|------------|------------|-------||


 Guitar Solo
  2.
  N.C.
  Gtr I
   E  E  E  E  E  E  E  E    E  E  E  E  E  E  E  E
|-------------------------|-------------------12-14-|
|-------------------------|----------12-13-15-------|
|-------------------------|-11-12-14----------------|
|-------------------12-14-|-------------------------|
|----------12-14-15-------|-------------------------|
|-12-14-15----------------|-------------------------|
|
| Gtr II
|  E  E  E  E  E  E  E  E    E  E  E  E  E  E  E  E
|-------------------------|-------------------------|
|-------------------------|-------------10-12-13-15-|
|-------------------------|-----9-11-12-------------|
|--------------------9-10-|-12----------------------|
|-----------9-10-12-------|-------------------------|
|--8-10-12----------------|-------------------------|
|
| Gtr III
|  W                         W
|-------------------------|-------------------------|
|-------------------------|-------------------------|
|-------------------------|-------------------------|
|-------------------------|-------------------------|
|-------------------------|-------------------------|
|-------------------------|-------------------------|


  E5                              B5
                                      ~~~~~~~
   H        a      +Q    +E   E    E  E  +H.
|-17b19----17b19==(17)r=(17)-15-|-17------------|
|-------------------------------|----15-(15)----|
|-------------------------------|---------------|
|-------------------------------|---------------|
|-------------------------------|---------------|
|-------------------------------|---------------|
|
|                                     ~~~~~~~
|  H        a      +Q    +E   E    E  E  +H.
|-------------------------------|---------------|
|-15b17----15b17==(15)r=(15)-12-|-15------------|
|-------------------------------|----12-(12)----|
|-------------------------------|---------------|
|-------------------------------|---------------|
|-------------------------------|---------------|
|
|  W                               W
|-------------------------------|---------------|
|-------------------------------|---------------|
|--9----------------------------|---------------|
|--9----------------------------|--9------------|
|--7----------------------------|--9------------|
|-------------------------------|--7------------|


  E5                               B5
   Q      Q      E     +E   E  E    +H.       Q
|-17b19--17b19--17b19r(17)-15-17-|-(17)----------|
|--------------------------------|-----------17--|
|--------------------------------|---------------|
|--------------------------------|---------------|
|--------------------------------|---------------|
|--------------------------------|---------------|
|
|  Q      Q      E     +E   E  E    +W
|--------------------------------|---------------|
|-15b17--15b17--15b17r(15)-12-15-|-(15)----------|
|--------------------------------|---------------|
|--------------------------------|---------------|
|--------------------------------|---------------|
|--------------------------------|---------------|
|
|  W                                 W
|--------------------------------|---------------|
|--------------------------------|---------------|
|--9-----------------------------|---------------|
|--9-----------------------------|---9-----------|
|--7-----------------------------|---9-----------|
|--------------------------------|---7-----------|


  C5                        D5
   E  E  E  E  E  E  E  E    E  E  E  E  E  E  E  E
|-15----14----------------|-------------------------|
|----17----15-17----15----|-------------------------|
|----------------17----16-|-17-14-16----14----------|
|-------------------------|----------17----16-17-14-|
|-------------------------|-------------------------|
|-------------------------|-------------------------|
|
|  E  E  E  E  E  E  E  E    E  E  E  E  E  E  E  E
|-19-15-17-14-15----14----|-------------------------|
|----------------17----15-|-17----15----------------|
|-------------------------|----17----16-17-14-16----|
|-------------------------|----------------------17-|
|-------------------------|-------------------------|
|-------------------------|-------------------------|
|
|  W                         W
|-------------------------|-------------------------|
|-------------------------|-------------------------|
|--5----------------------|--7----------------------|
|--5----------------------|--7----------------------|
|--3----------------------|--5----------------------|
|-------------------------|-------------------------|


  B5
                     |-----5-----|
   E  E  E  E  E  E  S  S  S  S  S    E      +Q    +S   S  Q.      +S   S
|----------------------------------|--------------------------------------|
|----------------15-17h19h20p19p17-|-19b21==(19)r=(19)-17-----------------|
|-------14-16-17-------------------|----------------------19b21r==(19)p17-|
|-16-17----------------------------|--------------------------------------|
|----------------------------------|--------------------------------------|
|----------------------------------|--------------------------------------|
|
|                    |-----5-----|
|  E  E  E  E  E  E  S  S  S  S  S    E      +Q    +S   S  H
|----------------14-15h17h19p17p15-|-17b19==(17)r=(17)-15-----------------|
|----------15-17-------------------|----------------------19b20-----------|
|-14-16-17-------------------------|--------------------------------------|
|----------------------------------|--------------------------------------|
|----------------------------------|--------------------------------------|
|----------------------------------|--------------------------------------|
|
|  W                                 +W
|----------------------------------|--------------------------------------|
|----------------------------------|--------------------------------------|
|----------------------------------|--------------------------------------|
|--9-------------------------------|-(9)----------------------------------|
|--9-------------------------------|-(9)----------------------------------|
|--7-------------------------------|-(7)----------------------------------|


  E5                          B5
   H        E     +E   E  E    +Q       +H.
|-17b19----17b19r(17)p15-17-|-(17)b19--(17)----|
|---------------------------|------------------|
|---------------------------|------------------|
|---------------------------|------------------|
|---------------------------|------------------|
|---------------------------|------------------|
|
|  H        E     +E   E  E    +Q       +H.
|---------------------------|------------------|
|-19b20----19b20r(19)p17-19-|-(19)b20--(19)----|
|---------------------------|------------------|
|---------------------------|------------------|
|---------------------------|------------------|
|---------------------------|------------------|
|
|  W                            W
|---------------------------|------------------|
|---------------------------|------------------|
|--9------------------------|------------------|
|--9------------------------|---9--------------|
|--7------------------------|---9--------------|
|---------------------------|---7--------------|


  E5                    B5          C5
                         ~~
                                     |--3--|  |--3--|  |--3--|  |--3--|
    H     Q.      +E     W           E  E  E  E  E  E  E  E  E  E  E  E
|-/24----24b26r==(24)-|-----------|-22p20p19-20p19----19----------------|
|---------------------|-24--------|----------------22----22p20-22p20p19-|
|---------------------|-----------|-------------------------------------|
|---------------------|-----------|-------------------------------------|
|---------------------|-----------|-------------------------------------|
|---------------------|-----------|-------------------------------------|
|
|                        ~~
|                                    |--3--|  |--3--|  |--3--|  |--3--|
|   H     Q.      +E     W           E  E  E  E  E  E  E  E  E  E  E  E
|---------------------|-----------|-19p17p15-17p15----15----------------|
|--24----24b27r==(24)-|-----------|----------------19----19p17-19p17p15-|
|---------------------|-24--------|-------------------------------------|
|---------------------|-----------|-------------------------------------|
|---------------------|-----------|-------------------------------------|
|---------------------|-----------|-------------------------------------|
|
|   W                    W           W
|---------------------|-----------|-------------------------------------|
|---------------------|-----------|-------------------------------------|
|---9-----------------|-----------|--5----------------------------------|
|---9-----------------|--9--------|--5----------------------------------|
|---7-----------------|--9--------|--3----------------------------------|
|---------------------|--7--------|-------------------------------------|


  D5
   |--3--|  |--3--|  |--3--|  |--3--|
   E  E  E  E  E  E  E  E  E  E  E  E
|-------------------------------------|
|-20p19----19-------------------------|
|-------21----21p19-21p19----19-------|
|-------------------------22----22p21-|
|-------------------------------------|
|-------------------------------------|
|
|  |--3--|  |--3--|  |--3--|  |--3--|
|  E  E  E  E  E  E  E  E  E  E  E  E
|-------------------------------------|
|-17p15----15-------------------------|
|-------17----17p16-17p16----16-------|
|-------------------------19----19p17-|
|-------------------------------------|
|-------------------------------------|
|
|  W
|-------------------------------------|
|-------------------------------------|
|--7----------------------------------|
|--7----------------------------------|
|--5----------------------------------|
|-------------------------------------|


  E5                                    D5
   |--3--|  |--3--|  |--3--|  |--3--|
   E  E  E  E  E  E  E  E  E  E  E  E    H        +Q    Q
|-------------------------19-22-20p19-|---------------------|
|----------------19-20h22-------------|-20b22----(20)\------|
|----------19h21----------------------|---------------------|
|-19h21h22----------------------------|---------------------|
|-------------------------------------|---------------------|
|-------------------------------------|---------------------|
|
|  |--3--|  |--3--|  |--3--|  |--3--|
|  E  E  E  E  E  E  E  E  E  E  E  E    H        +Q    Q
|----------------------------15h19p15-|---------------------|
|-------------------17h19h20----------|-17b19----(17)\------|
|----------16h17h19-------------------|---------------------|
|-16h17h19----------------------------|---------------------|
|-------------------------------------|---------------------|
|-------------------------------------|---------------------|
|
|  W                                     W
|-------------------------------------|---------------------|
|-------------------------------------|---------------------|
|--9----------------------------------|--7------------------|
|--9----------------------------------|--7------------------|
|--7----------------------------------|--5------------------|
|-------------------------------------|---------------------|


   Interlude
    E5
     E      E  S  +S   E  E      E  S  +S   E    E      E  S  +S   E  Q.      +S   S
||--------------------------------------------|--------------------------------------|
||o-------------------------------------------|--------------------------------------|
||--14b16==14-14r(14)p12-14b16==14-14r(14)p12-|-14b16==14-14r(14)p12-14b16r==(14)p12-|
||--------------------------------------------|--------------------------------------|
||o-------------------------------------------|--------------------------------------|
||--------------------------------------------|--------------------------------------|
|
|    E      E  S  +S   E  E      E  S  +S   E    E      E  S  +S   E  Q.      +S   S
||--------------------------------------------|--------------------------------------|
||o-13b15==13-13r(13)p12-13b15==13-13r(13)p12-|-13b15==13-13r(13)p12-13b15r==(13)p12-|
||--------------------------------------------|--------------------------------------|
||--------------------------------------------|--------------------------------------|
||o-------------------------------------------|--------------------------------------|
||--------------------------------------------|--------------------------------------|
|
|    W                                          +W
||--------------------------------------------|--------------------------------------|
||o-------------------------------------------|--------------------------------------|
||---9----------------------------------------|-(9)----------------------------------|
||---9----------------------------------------|-(9)----------------------------------|
||o--7----------------------------------------|-(7)----------------------------------|
||--------------------------------------------|--------------------------------------|


                              1.
  C5       D5                  E5
                                ~~~~
   H        E      +E   +Q      W
|----------------------------|-----------------||
|-15b17----15b17==(15)r(15)--|-12-------------o||
|----------------------------|-----------------||
|----------------------------|-----------------||
|----------------------------|----------------o||
|----------------------------|-----------------||
|
|                               ~~~~
|  H        E      +E   +Q      H..        E
|-14b15----14b15==(14)r(14)--|-----------------||
|----------------------------|-15---------15--o||
|----------------------------|-----------------||
|----------------------------|-----------------||
|----------------------------|----------------o||
|----------------------------|-----------------||
|
|  H        H                   W
|----------------------------|-----------------||
|----------------------------|----------------o||
|--5--------7----------------|--9--------------||
|--5--------7----------------|--9--------------||
|--3--------5----------------|--7-------------o||
|----------------------------|-----------------||


                    Guitar Solo 2
  2.
  E5                 G5
   ~~~
   H.       +Q        S  S  S  S  S  S  S  S  S  S  S  S  S  S  S  S
|-----------------||-19p15-------19p15-------15h19p15h20p15h19-------|
|-12-------(12)\--||-------19p15-------19p15-------------------15h19-|
|-----------------||-------------------------------------------------|
|-----------------||-------------------------------------------------|
|-----------------||-------------------------------------------------|
|-----------------||-------------------------------------------------|
|
|  ~~~
|  H.       +Q        H                       Q           Q
|-----------------||-------------------------------------------------|
|-15-------(15)\--||-------------------------------------------------|
|-----------------||-------------------------------------------------|
|-----------------||-------------------------------------------------|
|-----------------||--------------------------------------2----------|
|-----------------||--3-----------------------5----------------------|
|
|                     PM----------------------------------------------
|  W                  E     E     E     E     E     E     E     E
|-----------------||-------------------------------------------------|
|-----------------||-------------------------------------------------|
|--9--------------||--7-----7-----7-----7-----7-----7-----7-----7----|
|--9--------------||--5-----5-----5-----5-----5-----5-----5-----5----|
|--7--------------||-------------------------------------------------|
|-----------------||-------------------------------------------------|


  D5
   S  S  S  S  S  S  S  S  S  S  S  S  S  S  S  S
|-19p15-------19p15-------19p15h20p15h19p15---------|
|-------19p15-------19p15-------------------19p15---|
|---------------------------------------------------|
|---------------------------------------------------|
|---------------------------------------------------|
|---------------------------------------------------|
|
|  H                       Q           Q
|---------------------------------------------------|
|---------------------------------------------------|
|---------------------------------------------------|
|--------------------------2-----------4------------|
|--5------------------------------------------------|
|---------------------------------------------------|
|
|-------------------------------------------|
|  E     E     E     E     E     E     E     E
|---------------------------------------------------|
|---------------------------------------------------|
|---------------------------------------------------|
|--7-----7-----7-----7-----7-----7-----7-----7------|
|--5-----5-----5-----5-----5-----5-----5-----5------|
|---------------------------------------------------|


  G5
   S  S  S  S  S  S  S  S  S  S  S  S  S  S  S  S
|-17p15p14----17p15p14----17p15h19p15h19p15h20p15-|
|----------15----------15-------------------------|
|-------------------------------------------------|
|-------------------------------------------------|
|-------------------------------------------------|
|-------------------------------------------------|
|
|  H                       Q           Q
|-------------------------------------------------|
|-------------------------------------------------|
|-------------------------------------------------|
|-------------------------------------------------|
|--------------------------------------2----------|
|--3-----------------------5----------------------|
|
|  PM----------------------------------------------
|  E     E     E     E     E     E     E     E
|-------------------------------------------------|
|-------------------------------------------------|
|--7-----7-----7-----7-----7-----7-----7-----7----|
|--5-----5-----5-----5-----5-----5-----5-----5----|
|-------------------------------------------------|
|-------------------------------------------------|


  D5
   S  S  S  S  S  S  S  S  S  S  S  S  Q
|-17p15p14----17p15p14----19p14h20p14h19---|
|----------15----------15------------------|
|------------------------------------------|
|------------------------------------------|
|------------------------------------------|
|------------------------------------------|
|
|  H                       Q           Q
|------------------------------------------|
|------------------------------------------|
|------------------------------------------|
|--------------------------2-----------4---|
|--5---------------------------------------|
|------------------------------------------|
|
|----------------------------------------|
|  E     E     E     E     E     E     E E
|------------------------------------------|
|------------------------------------------|
|------------------------------------------|
|--7-----7-----7-----7-----7-----7-----7-7-|
|--5-----5-----5-----5-----5-----5-----5-5-|
|------------------------------------------|


  G5                A5
  PM--------------------------|
  E E E E E E E E   E E E E E E E E
|-----------------|-----------------|
|-----------5-7-8-|---------5---5h7-|
|-----4-5-7-------|---4-5-7---7-----|
|-5-7-------------|-7---------------|
|-----------------|-----------------|
|-----------------|-----------------|
|
| PM------------------------------|
| E E E E E E E E   E E E E E E E E
|-------------5-7-|---------------5-|
|-------5-7-8-----|-----5-7-8-7-8---|
|-4-5-7-----------|-6-7-------------|
|-----------------|-----------------|
|-----------------|-----------------|
|-----------------|-----------------|
|
| PM------------------------------|
| E E E E E E E E   E E E E E E E E
|-----------------|-----------------|
|-----------------|-----------------|
|-----------------|-----------------|
|-----------------|-----------------|
|-5-5-5-5-5-5-5-5-|-7-7-7-7-7-7-7-7-|
|-3-3-3-3-3-3-3-3-|-5-5-5-5-5-5-5-5-|


                            D.S.S. al Dbl. Coda
  D5
                   \1/ \1/ \1/ \1/ \1/ \1/ \1/ \1/
  ~
  W                E   E   E   E   E   E   E   E
|----------------|---------------------------------|
|----------------|---------------------------------|
|-7--------------|---------------------------------|
|----------------|---------------------------------|
|----------------|-7---7---7---7---7---7---7---7---|
|----------------|---------------------------------|
|
| ~
| W                W
|----------------|---------------------------------|
|-7--------------|---------------------------------|
|----------------|---------------------------------|
|----------------|---------------------------------|
|----------------|---------------------------------|
|----------------|---------------------------------|
|
|    PM------------|
| Q  E E E E E E   E   E   Q       H
|----------------|---------------------------------|
|----------------|---------------------------------|
|-7--------------|---------------------------------|
|-7--7-7-7-7-7-7-|-7-------------------------------|
|-5--5-5-5-5-5-5-|-5-------------------------------|
|----------------|---------------------------------|


 Outro
  &&
  C5         B5                 C5
               \7
  W          E E  E E E E E E   W
|----------|------------------|----------|
|----------|------------------|----------|
|-5--------|-4-x--x-x-x-x-x-x-|-5--------|
|-5--------|-4-x--x-x-x-x-x-x-|-5--------|
|-3--------|-2-x--x-x-x-x-x-x-|-3--------|
|----------|------------------|----------|
|
| W          E E  Q   H         W
|----------|------------------|----------|
|----------|------------------|----------|
|-5--------|-4----------------|-5--------|
|-5--------|-4----------------|-5--------|
|-3--------|-2----------------|-3--------|
|----------|------------------|----------|


  B5            C5         B5     D5
  E E Q  H      W          E E Q  E E E E
|-------------|----------|-----------------|
|-------------|----------|-----------------|
|-4-----------|-5--------|-4------7---7----|
|-4-----------|-5--------|-4------7---7----|
|-2-----------|-3--------|-2------5---5----|
|-------------|----------|-----------------|
|
| E E Q  H      W          E E Q  E E E E
|-------------|----------|-----------------|
|-------------|----------|-----------------|
|-4-----------|-5--------|-4------7---7----|
|-4-----------|-5--------|-4------7---7----|
|-2-----------|-3--------|-2------5---5----|
|-------------|----------|-----------------|


              1.,2.             3.
    E5                D5                D5       E5
    Gtrs I, II
    W          +H     E E Q   3x  H     E E Q    Q  Q  H
||-----------|----------------||---------------|------------*|
||o----------|---------------o||---------------|------------*|
||--9--------|-(9)----7---7---||-(9)----7---7--|-9----------*|
||--9--------|-(9)----7---7---||-(9)----7---7--|-9----------*|
||o-7--------|-(7)----5---5--o||-(7)----5---5--|-7----------*|
||-----------|----------------||---------------|------------*|



Duration Legend
---------------
W - whole; H - half; Q - quarter; E - 8th; S - 16th; T - 32nd; X - 64th; a - acciaccatura
+ - note tied to previous; . - note dotted; .. - note double dotted
Uncapitalized letters represent notes that are staccato (1/2 duration)
Irregular groupings are notated above the duration line
Duration letters will always appear directly above the note/fret number it represents the
duration for.  Duration letters with no fret number below them represent rests.  Multi-
bar rests are notated in the form Wxn, where n is the number of bars to rest for.  Low
melody durations appear below the staff

Tablature Legend
----------------
 h   - hammer-on
 p   - pull-off
 b   - bend
 pb  - pre-bend
 r   - bend release (if no number after the r, then release immediately)
 /\  - slide into or out of (from/to "nowhere")
 s   - legato slide
 S   - shift slide
 - natural harmonic
[n]  - artificial harmonic
n(n) - tapped harmonic
 ~   - vibrato
 tr  - trill
 T   - tap
 TP  - trem. picking
 PM  - palm muting
\n/  - tremolo bar dip; n = amount to dip
 \n  - tremolo bar down
 n/  - tremolo bar up
/n\  - tremolo bar inverted dip
 =   - hold bend; also acts as connecting device for hammers/pulls
 <> - volume swell (louder/softer)
 x   - on rhythm slash represents muted slash
 o   - on rhythm slash represents single note slash

Misc Legend
-----------
 |  - bar
||  - double bar
||o - repeat start
o|| - repeat end
*|  - double bar (ending)
 :  - bar (freetime)
 $  - Segno
 &  - Coda
Tempo markers -  = BPM(8/16=s8/s16), where s8 = swing 8ths, s16 = swing 16ths


            
            
Suggest correction
Creating personal tab
Creating personal tab
You can edit any tab online and save it as your Personal.

You can edit, replace or remove any tab part or add personal notes – all changes will be seen only by you.

Personal tabs can be accessed anytime from any device, even offline.
Learn more »
Give kudos to tab author, rate the tab!
1 2 3 4 5
comments
print report bad tab
guest
You may want to rate the tab now too:
select rating
Wanna post a correction for this tab? Suggest correction