Oops, an error
Loading. Please wait.

Keeper Of The Seven Keys bass

version 2
version 2

Whole song

Interactive

865 views 1 this week
no commentswrite comment
1 2 3 4 5
3 more votes to show rating
add to favorites
×
Save as Personal and add changes to this tab that will be seen only by you. Learn more ›
×
You can save this tab as Personal to edit and correct it or add notes. All changes will be seen only by you. Learn more »
launch autoscroll
font size
0
reset
guitar tuner
edit
Autoscroll
slow
fast
+/-
esc
set tempo
stop
#----------------------------------PLEASE NOTE---------------------------------#
#This file is the author's own work and represents their interpretation of the #
#song. You may only use this file for private study, scholarship, or research. #
#------------------------------------------------------------------------------#

KEEPER OF THE SEVEN KEYS (Bassline)
As recorded by Helloween
(From the 1988 Album KEEPER OF THE SEVEN KEYS PT. 2)

Transcribed by Asmogriff (ComfortablyDumb)
	

Words and Music by Michael Weikath
Arranged by Helloween

Gtr I (E A D G) - 'Untitled'

 00:00
  Q=75
 4/4
  Gtr I
  Wx3           S  S  E  +Q   H       H    S S S S S S S S
|------------|----------------------|----------------------|
|------------|----14----------------|----------------------|
|------------|-12----12-(12)S=7\----|----------------0-2-3-|
|------------|----------------------|------0-1-2-3-4-------|


    Q.   E Q.   E   H    S S S S S S S S
||----------------|----------------------|
||o---------------|----------------------|
||o-0----0--------|----------------0-2-3-|
||---------3----3-|-2----0-1-2-3-4-------|


                                           Q=97
  Q.   E Q.   E   H    S S S S S S S S     H.      E E
|---------------|-----------------------||---------------|
|---------------|----------------------o||---------------|
|-0----0-3----3-|----------------0-2-3-o||-0-------------|
|---------------|-2----0-1-2-3-4--------||-----------0---|


   00:41
    H..       E   H    Q  Q    Q.   S S Q  Q    H..       E   H..       E
||--------------|------------|----------------|-------------|--------------|
||o-------------|------------|----------------|-------------|--------------|
||o-0-----------|---------0--|----------------|-------------|--------------|
||------------0-|-1----3-----|-3----0-0-3--1--|-0---------1-|-1---------3--|


            1.                               2.   H.=H   Q=70
  W          H    H      Q.   a E E Q  E     H    H      Q.   a E E Q  E
|----------|-----------|------------------||-----------|------------------|
|----------|-----------|----------7------o||-----------|----------7-------|
|-3--------|-----------|-0----1S7---7----o||-----------|-0----1S7---7-----|
|----------|-1----3----|---------------0--||-1----3----|---------------0--|


    Q=139
    $
    E E E E E E E E   E E E E E E E E   E E E E a E E E E   E E E E E. S E E
||------------------|-----------------|-------------------|------------------|
||o-----------------|-----------------|-------------5---5-|------------------|
||o-0---0---0---0---|-----------------|---------3S5---5---|------------------|
||------------------|-1---1---1---1---|-3---3-------------|-0---0---0--0-0-0-|


                                                                  \1   /
  E E E E E. S E E   E E E E E E E E   E E E E E E E E   E. S E E Q   +Q
|------------------|-----------------|-----------------|--------------------||
|------------------|-----------------|-----------------|-------------------o||
|--------------3-0-|-3---3---3-2-----|-----------------|-------------------o||
|-1---1---1--1-----|-------------5-3-|-1---1---3---3---|-5--5-5-5-5---(5)---||


 01:50 + 03:34
  Q=132
  E E E E E E E E   E E E E E E E E   E E E E E E E E   E E E E E E E E
|-----------------|-----------------|-----------------|-------2-5-2-----|
|-----------------|-----------------|-----------------|---2-5-------5-2-|
|---3-1-0-3-------|---2-0---2-------|---5-3---5-------|-3---------------|
|-1---------1-1-1-|-0-----4---0-0-0-|-3-----3---3-3-3-|-----------------|


  E E E E E. S E E   E E E E S S E E E   E E E E E E E E   E E E E E E Q
|------------------|-------------------|-----------------|-----------------|
|------------------|-------------2-0---|-----------------|-----------------|
|----------------0-|-3-3-3-3-3-3-----3-|---2-0---2-------|---5-3-2-5-------|
|-1-1-1-1-1--1-3---|-------------------|-0-----0---0-0-0-|-3---------------|


    H.=40                               Q=158
   6/4                                 3/4
                                        |-3-| |-3-| |-3-|   |-3-| |-3-| |-3-|
    S S S S S S E S S S S E E E E E E   E E E E E E E E E   E E E E E E E E E
||------------------------------------|-------------------|--------------------|
||o-----------------------------------|-------------------|-------------2-2-2--|
||o-----------------------------0-0---|-------------------|-3-3-3-5-5-5--------|
||--1-1-1-1-1-1-3-3-3-3-1-0-0-3-----3-|-1-1-1-3-3-3-5-5-5-|--------------------|


  |-3-| |-3-| |-3-|   |-3-| |-3-| |-3-|
  E E E E E E E E E   E E E E E E E E E
|-------------------|--------------------||
|-------------------|-------------------o||
|-3-3-3-2-2-2-------|-------------------o||
|-------------5-5-5-|-3-3-3-1-1-1-0-0-0--||


  Q=120      Q=90    H.=H              Q=85
 4/4
  W          E E E E E E E E   E E E E Q  Q
|----------|-----------------|-------2-------|
|----------|-----2-3---2-3-5-|-2-3-5---------|
|-0--------|-3-5-----5-------|---------------|
|----------|-----------------|---------1--3--|


 02:28 + 04:12
  Q=88
  $$
  Q.   E Q  Q    Q.   E Q  Q    Q  E E E E E E   Q.   E Q  Q
|--------------|--------------|----------------|--------------|
|--------------|--------------|------3-5-----5-|--------------|
|-3------3-----|--------------|----3-----2-5---|-3------3--2--|
|------3----3--|-5----0-5--3--|-1--------------|------3-------|


  Q=90
  Q  E E +E  S S Q    E E E E +E  S S S S E
|-------------------|-----------------------|
|-------------------|-----------------------|
|-3----7-(7)-7------|-3-3---0-(0)-0-0-0-0---|
|--------------7-0--|---------------------3-|


  Q  E E +E  S S E E   Q  E E +E  E E E
|--------------------|------------------|
|--------------------|------------------|
|------3-(3)-3-3-3-3-|-0------------2---|
|-1------------------|------3-(3)-3---3-|


                                To Dbl. Coda
  Q  E E +E  S S Q    E E E E +E  S S S S E
|-------------------|-----------------------|
|-------------------|-----------------------|
|-3----7-(7)-7------|-3-3---0-(0)-0-0-0-0---|
|--------------7-0--|---------------------3-|


  Q  E E +E  S S E E   Q  E E +E  E E E
|--------------------|------------------|
|--------------------|------------------|
|------3-(3)-3-3-3-3-|-0------------2---|
|-1------------------|------3-(3)-3---3-|


                   To CodD.S. al Coda   &
                 2/4       3/4
  Q  E E +H       E E E E   +H.         +H     +E  S S
|---------------|---------|----------||----------------|
|---------------|---------|----------||----------------|
|------3-(3)----|-------3-|-(3)------||-(3)----(3)-3-2-|
|-1-------------|-3-3-3---|----------||----------------|


 04:50
  Q=95
 4/4
  W          Q  Q  E E E E   S S S S Q  Q  S S S S
|----------|---------------|-----------------------|
|----------|---------------|-----------------------|
|-0--------|-0--0--0-0-0-0-|-----------------------|
|----------|---------------|-3-3-3-3-3--3--3-2-3-4-|


  Q  Q  E E E E   S S S S Q  Q  S S S S
|---------------|------------------------|
|---------------|------------------------|
|-0--0--0-0-0-0-|------------------------|
|---------------|-3-3-3-3-3--3--3-2-3-4--|


           \1
  H.      +Q     S S S S H    E E   E S S E S S S S S S S S S S
|--------------|------------------|------------------------------|
|--------------|------------------|------------------------------|
|-0-------(0)--|------------------|------------------------------|
|--------------|-1-1-1-1-1----1-1-|-3-3-3-3-3-3-3-3-3-3-3-3-3-3--|


   05:10
    S S S S S S S S S S S S S S S S   S S S S S S S S E E S S S S
||----------------------------------|-----------------------------|
||o---------------------------------|-----------------------------|
||o-5S7-7-7-7S5-5-5-5S7-7-7-7S2-2-2-|-2S3-3-3-3-0-0-0-2-----------|
||----------------------------------|---------------------5-3-2-0-|


                         |-3-|
  S  S  S  S  S  S E S S S S S S S E
|----------------------------7-5h7-----|
|---------14-12h14-------7h9-----------|
|------14------------5S7---------------|
|-0-12---------------------------------|


  S S S S S S S S S S E S S S S   +Q   H.
|-----------5-----4-------------|--------------|
|-------4-5---5-4---4-----------|--------------|
|---5-7---------------2-0-------|------5-------|
|-------------------------3-2-0-|-(0)----------|


              1.                        2.
  +W           S S E Q  S S E S S E      +W
|------------|-----------------------||---------|
|------------|----------------------o||---------|
|-(5)--------|-5-5------5-5---5-5---o||--(5)----|
|------------|-----------------------||---------|


   05:45
    S S S S Q  S S E S S E   S S S S Q  S S E S S E  4x
||-------------------------|-------------------------||
||o----------------------7-|------------------------o||
||o----------------5-7S9---|----------------5-4-----o||
||--7-7-7-5-7--5h7---------|-7-7-7-5-7--5h7-----7-5--||


   06:04
    S S S S E S S +S  S S S S S S S   S S S S E S S +S  S S S S S S S
||----------------------------------|----------------------------------||
||o---------7-----------------------|---------7-----------------------o||
||o-7h9-9-9---7-9-(9)-7-------9-----|-7h9-9-9---7-9-(9)-7-------9-----o||
||----------------------9-8-7---8h9-|---------------------9-8-7---8h9--||


  S S S S S S S S +S  S S S S S S S   S S S S S S S S +S  S S S S S S S
|-----------------------------------|-----------------------------------|
|-----------------------4-5-7-5-4-0-|-----------------------4-5-7-5-4-0-|
|-5S7-7-7-7---5-7-(7)-7-------------|-5S7-7-7-7---5-7-(7)-7-------------|
|-----------------------------------|-----------------------------------|


  E. S S S E E. S S E.   S S S S S S S S S S S S S S S S   E. S S S E H
|----------------------|---------------------------------|-----------------|
|----------------------|---------------------------------|-----------------|
|-3--3-3-3-3-5--5-5-5--|-2h3-2p0-2p0---------------------|-3--3-3-3-3-5----|
|----------------------|-------------3-2-0-0-0-0-0-0-0-0-|-----------------|


  S S S S S S S S S S S S S S S S   S S S S S S S S S S S S S S S S
|---------------------------------|---------------------------------|
|---------------------4-5-7-5-4-0-|---------------------4-5-7-5-4-0-|
|-5S7-7-7-7---5-7-7-7-------------|-5S7-7-7-7---5-7-7-7-------------|
|---------------------------------|---------------------------------|


  E. S S S E E. S S E.   S S S S S S S S S S S S S S S S   E. S +S  S E H
|----------------------|---------------------------------|-------------------|
|----------------------|---------------------------------|-------------------|
|-3--3-3-3-3-5--5-5-5--|-2h3-2p0-2p0-------------7-7-5-5-|-3--3-(3)-3-3-5----|
|----------------------|-------------3-2-0-0-0-0---------|-------------------|


    S S S S S S S S S S S S S S S S   S S S S S S S S H
||----------------------------------|-----------------------||
||o---------------------------------|----------------------o||
||o---------------------------------|----------------------o||
||--0h2-2-2-2-2-0h2-0h2-2-2-2-2-2-2-|-0h2-2-2-2-2-2-2-------||


      E S S S S S S S S S S S S S S
|-||-----------------------------------||
|-||o---------------------------------o||
|-||o-------------5h7-----------------o||
|-||--0-0-0-0-0-0-----0-5p0-4p0-2p0----||


  S S S S S S S S S S S S S S S S   S S S S S S S S H
|---------------------------------|----------------------|
|---------------------------------|----------------------|
|---------------------------------|----------------------|
|-0h2-2-2-2-2-0h2-0h2-2-2-2-2-2-2-|-0h2-2-2-2-2-2-2------|


 06:59
  Q=190
  Q  Q  Q  E E     E E E E E E E E  3x Q  Q  Q  Q    Q  Q  Q  Q
|--------------||-------------------||-------------|-------------|
|--------------||o-----------------o||-------------|-------------|
|--------------||o-----------------o||-------------|----------5--|
|-0--0-----0-0-||--0---0-0-0---0-0--||----0-----3--|----5--------|


  Q  Q  Q  Q    E E E E E E Q    Q  Q  Q  Q    Q  Q  Q  Q
|-------------|----------------|-------------|-------------|
|-------------|----------------|-------------|-------------|
|----3-----5--|----------------|-------------|-------5--5--|
|-------------|-3---2---0------|-0--0--3--3--|-5--5--------|


                      \2
  Q  Q  Q  Q    H    +H       Q  Q  Q  Q    Q  Q  Q  Q
|-------------|-------------|-------------|-------------|
|-------------|-------------|-------------|-------------|
|-------5--5--|-7----(7)----|-------------|-------5--5--|
|-7--7--------|-------------|-0--0--3--3--|-5--5--------|


  Q  Q  Q  Q    Q  Q  H      Q  Q  Q  Q    Q  Q  Q  Q    Q  Q  Q  Q
|-------------|------------|-------------|-------------|-------------|
|-------------|------------|-------------|-------------|-------------|
|-3--3--5--5--|------------|-------------|-------5--5--|-------5--6--|
|-------------|-3--2--0----|-0--0--3--3--|-5--5--------|-7--7--------|


 07:25
  Q=120
  H..       E   E E H.        H..       E   E E Q  +E  E E E
|-------------|-------------|-------------|------------------|
|-------------|-------------|-------------|------------5-4---|
|-7-----------|-7---7-------|-5-----------|-5---5--(5)-----5-|
|-----------7-|-------------|-----------5-|------------------|


  Q.   E Q  Q    Q  E S S Q  Q    H..       E   +E  E E E E E S S E
|--------5-----|----------7-----|-----------9-|-(9)-7-5-4-------------|
|------5----5--|------7-7----7--|-------------|-----------7-5-5h7-----|
|-3------------|-5--5-----------|-7-----------|-------------------7---|
|--------------|----------------|-------------|-----------------------|


  H..       E   E E Q  +E  E E E   H    Q.   E   E E Q  +E  E E E
|-------------|------------------|-------------|------------------|
|-------------|------------------|-------------|------------5-4---|
|-------------|-7---7--(7)-7---7-|-5----5------|-5---5--(5)-----5-|
|-0---------7-|--------------7---|-----------5-|------------------|


  Q.   E Q  Q    Q.   E Q  Q    H..       E   +E  Q  E E E E E
|--------5-----|--------7-----|-------------|-----4--4---------|
|------5----5--|------7----7--|-----------5-|-(5)------7-5-4---|
|-3------------|-5------------|-7-----------|----------------5-|
|--------------|--------------|-------------|------------------|


 07:56
  H    Q.   E   E E Q  +E  E E E   H    Q.   E   E E Q  +E  E E E
|-------------|------------------|-------------|------------------|
|-------------|------------------|-------------|------------5-4---|
|-7----7------|-7---7--(7)-7---7-|-5----5------|-5---5--(5)-----5-|
|-----------7-|--------------7---|-----------5-|------------------|


  H    E E E E   H    E E E E   Q.   E E Q  E   E. S E E E E E E
|--------------|--------------|---------------|------------------|
|--------------|--------------|---------------|------------------|
|-3------3---3-|-5------5---5-|-7----7---7--7-|-7--5-3-2---------|
|--------------|--------------|---------------|----------5-3-2-0-|


  H..       E   E E H.        H..       E   E E Q  +E  E E E
|-------------|-------------|-------------|------------------|
|-------------|-------------|-------------|------------5-4---|
|-7-----------|-------------|-5-----------|-5---5--(5)-----5-|
|-----------7-|-7---7-------|-----------5-|------------------|


  Q.   E Q  Q    Q.   E Q  Q    Q  E E E E Q     E E E E E E E E
|--------5-----|--------7-----|----------------|-----------------|
|------5----5--|------7----7--|----------------|-----------------|
|-3------------|-5------------|-7--7-7-7-7-7\--|-----------------|
|--------------|--------------|----------------|-0-0-0-0-0-0-0-0-|


 08:28
  Q  E E E E E E   E E E E E E E E   E E E E E E E E   E E E E E E E E
|----------------|-----------------|-----------------|------------------|
|----------------|-----------------|-----------------|------------------|
|----------------|-----------------|-----------------|------------------|
|-2--2---2---2---|-2---2---2---2---|-4---4---4---4---|-4---4---4---4----|


  E E E E E E E E   E E E E E E E E   E E E E E E E E   E E E E E E E E
|-----------------|-----------------|-----------------|------------------|
|-----------------|-----------------|-----------------|------------------|
|-----------------|-----------------|-----------------|------------------|
|-2---2---2---2---|-2---2---2---2---|-4---4---4---4---|-4---4---4---4----|


  Q  Q  +H        Q  Q  +H        e e e e e e e e   e e e e e e e e
|---------------|---------------|-----------------|-----------------|
|---------------|---------------|-----------------|-----------------|
|----7--(7)\----|----7--(7)\----|-3-3-3-3-3-3-3-3-|-5-5-5-5-5-5-5-5-|
|-0-------------|-0-------------|-----------------|-----------------|


  Q  Q  +H        Q  Q  +H        e e e e e e e e   e e e e e e e e
|---------------|---------------|-----------------|-----------------|
|---------------|---------------|-----------------|-----------------|
|----7--(7)\----|----7--(7)\----|-3-3-3-3-3-3-3-3-|-5-5-5-5-5-3-2---|
|-0-------------|-0-------------|-----------------|---------------3-|


  E E E E E E E E   E E E E E E E E   E E E E E E E E   E E E E E E E E
|-----------------|-----------------|-----------------|-----------------|
|-----------------|-----------------|-----------------|-----------------|
|-----------5---5-|-2-2-2-2-2---0-2-|-3-3-3-3-5-5-5-5-|-----------0-----|
|-0-0-0-0-0---0---|-----------3-----|-----------------|-3-3-3-3-3---3-2-|


  E E S E. E E E E   E E S E. E E E E
|------------------|------------------|
|------------------|------------------|
|--------------2-0-|-2-2-2-2--2-2-2-2-|
|-0-0-0-0--0-0-----|------------------|


  E E S E. E E E E   S S S S E E S S S S S S E
|------------------|----------------------------|
|------------------|----------------------------|
|-3-3-3-3--3-3-3-3-|-5-5-5-5-5-0-5-5-5-5-5-5-5--|
|------------------|----------------------------|


                                    H=H
  S S S S S S S S S S S S S S S S   W          +W           +W
|---------------------------------|----------|------------|--------|
|---------------------------------|----------|------------|--------|
|-7-7-7-7-7-7-7-7-7-7-7-7-7-7-7-7-|----------|------------|--------|
|---------------------------------|-0--------|-(0)--------|-(0)----|


   09:23
    Q=130
    S S S S S S S S S S S S S S S S   S S S S S S S S S S S S S S S S
||----------------------------------|----------------------------------|
||o---------------------------------|----------------------------------|
||o-7-7-7-7-7-7-7-7-7-7-7-7-7-7-7-7-|-----------------7-7-7-7-7-7-7-7--|
||----------------------------------|-7-7-7-7-7-7-7-7------------------|


  S S S S S S S S S S S S S S S S   S S S S S S S S e e e E
|---------------------------------|--------------------------||
|---------------------------------|-------------------------o||
|-7-7-7-7-7-7-7-7-7-7-7-7-7-7-7-7-|---------6-6-6-6-7---7---o||
|---------------------------------|-7-7-7-7-----------7------||


  e E E e e E E e   e E E e E E Q
|-----------------|----------------|
|-----------------|----------------|
|-3-------2-------|----------------|
|-------5-------3-|-5-----2-0-2-3--|


                   2/4     4/4                     2/4
  e E E e e E E e   Q  Q    E E S S E S S E S S E   E E E E
|-----------------|-------|-----------------------|---------|
|-----------------|-------|-----------------------|---------|
|-3-------2-------|-------|-----7-7---7-7---7-7---|-7---5---|
|-------5-------3-|-5--2--|-0-7-----7-----7-----7-|---------|


   09:48
   4/4
    S S S S S S S S S S S S S S S S   S S S S S S S S S S S S S S S S
||----------------------------------|---------------------------------|
||o---------------------------------|---------------------------------|
||o---------------------------------|---------------------------------|
||--7-7-7-7-7-7-7-7-7-7-7-7-7-7-7-7-|-7-7-7-7-7-7-7-7-7-7-7-7-7-7-7-7-|


  S S S S S S S S S S S S S S S S   S S S S S S S S S S S S S S S S
|---------------------------------|----------------------------------||
|---------------------------------|---------------------------------o||
|-7-7-7-7-7-7-7-7-7-7-7-7-7-7-7-7-|-7-7-7-7-7-7-7-7-7-7-7-7-7-7-7-5-o||
|---------------------------------|----------------------------------||


  S S S S S S S S S S S S S S S S   S S S S S S S S S S S S S S S S
|---------------------------------|---------------------------------|
|---------------------------------|---------------------------------|
|-7-7-7-7-7-7-7-7-5-5-5-5-5-5-5-5-|-3-3-3-3-3-3-3-3-2-2-2-2-2-2-2-2-|
|---------------------------------|---------------------------------|


 10:06
  S S S S S S S S S S S S E S S   E S S S S S S Q  Q
|-------------------------------|---------------------|
|-------------------------------|---------------------|
|-------------------------------|---------------3--5--|
|-0-0-0-0-0-0-0-0-0-0-0-0-0-0-0-|-0-0-0-0-0-0-0-------|


  S S S S S S S S S S S S S S S S   S S S S S S S S Q  Q
|---------------------------------|-----------------------|
|---------------------------------|-----------------------|
|-7-7-7-7-7-7-7-7-7-7-7-7-7-7-7-7-|-7-7-7-7-7-7-7-7-3--5--|
|---------------------------------|-----------------------|


  S S S S S S S S S S S S S S S S   S S S S S S S S S S S S S S S S
|---------------------------------|---------------------------------|
|---------------------------------|---------------------------------|
|-3-3-3-3-3-3-3-3-3-3-3-3-3-3-3-3-|-3-3-3-3-3-3-3-3S7-7-7-7-5-5-5-5-|
|---------------------------------|---------------------------------|


  S S S S S S S S S S S S S S S S   E. S +E  S S H
|---------------------------------|--------------------|
|---------------------------------|--------------------|
|-3-3-3-3-3-3-3-3-3-3-3-3-3-3-3-3-|-3--3-(3)-3-3-7\----|
|---------------------------------|--------------------|


 10:20
  S S S S S S S S S S S S S S S S   S S S S S S S S Q  Q
|---------------------------------|-----------------------|
|---------------------------------|-----------------------|
|-7-7-7-7-7-7-7-7-7-7-7-7-7-7-7-7-|-7-7-7-7-7-7-7-7-3--5--|
|---------------------------------|-----------------------|


  S S S S S S S S S S S S S S S S   S S S S S S S S Q  Q
|---------------------------------|-----------------------|
|---------------------------------|-----------------------|
|-7-7-7-7-7-7-7-7-7-7-7-7-7-7-7-7-|-7-7-7-7-7-7-7-7-3--5--|
|---------------------------------|-----------------------|


  S S S S S S S S S S S S S S S S   S S S S S S S S S S S S S S S S
|---------------------------------|---------------------------------|
|---------------------------------|---------------------------------|
|-3-3-3-3-3-3-3-3-3-3-3-3-3-3-3-3-|-3-3-3-3-3-3-3-3S7-7-7-7-5-5-5-5-|
|---------------------------------|---------------------------------|


  S S S S S S S S S S S S S S S S   Q  Q  S S S S S S S S
|---------------------------------|-----------------------|
|---------------------------------|-----------------------|
|-3-3-3-3-3-3-3-3-3-3-3-3-3-3-3-3-|-3--3--7-7-7-7-5-5-5-5-|
|---------------------------------|-----------------------|


   10:35
    S S S S S S S S S S S S S S S S   S S S S S S S S S S S S S S S S
||----------------------------------|----------------------------------|
||o---------------------------------|----------------------------------|
||o-7-7-7-7-7-7-7-7-7-7-7-7-7-7-7-7-|-7-7-7-7-7-7-7-7-7-7-7-7-7-7-7-7--|
||----------------------------------|----------------------------------|


  S S S S S S S S S S S S S S S S   S S S S S S S S S S S S S S S S
|---------------------------------|----------------------------------||
|---------------------------------|---------------------------------o||
|---------------------------------|---------------------------------o||
|-5-5-5-5-5-5-5-5-5-5-5-5-5-5-5-5-|-5-5-5-5-5-5-5-5-5-5-5-5-5-5-5-5--||


  S S S S S S S S S S S S S S S S
|---------------------------------|
|---------------------------------|
|---------------------------------|
|-5-5-5-5-5-5-5-5-5-5-5-5-5-5-5-5-|


  S S S S S S S S S S S S S S S S   S S S S S S S S S S S S S S S S
|---------------------------------|---------------------------------|
|---------------------------------|---------------------------------|
|---------------------------------|---------------------------------|
|-3-3-3-3-3-3-3-3-3-3-3-3-3-3-3-3-|-1-1-1-1-1-1-1-1-1-1-1-1-1-1-1-1-|


  S S S S S S S S S S S S S S S S
|---------------------------------||
|---------------------------------||
|---------------------------------||
|-0-0-0-0-0-0-0-0-0-0-0-0-0-0-0-0-||


 10:57
  S S S S S S S S S S S S S S S S   S S S S S S S S S S S S S S S S
|---------------------------------|---------------------------------|
|---------------------------------|---------------------------------|
|-0-0-0-0-0-0-0-0-0-0-0-0-0-0-----|-------------------------0-0-0-0-|
|-----------------------------0-0-|-1-1-1-1-1-1-1-1-1-1-3-3---------|


  S S S S S S S S S S S S S S S S
|---------------------------------|
|---------------------------------|
|---------------------------------|
|-3-3-3-3-3-3-3-3-3-3-3-3-1-1-1-1-|


  S S S S S S S S S S S S S S S S   S S S S S S S S S S S S S S S S
|---------------------------------|---------------------------------|
|---------------------------------|---------------------------------|
|---------------------------------|---------------------------------|
|-0-0-0-0-0-0-0-0-0-0-0-0-0-0-0-0-|-1-1-1-1-1-1-1-1-1-1-1-1-1-1-1-1-|


  S S S S S S S S S S S S S S S S   S S S S S S S S S S S S S S S S   W
|---------------------------------|---------------------------------|------|
|---------------------------------|---------------------------------|------|
|-3-3-3-3-3-3-3-3-3-3-2-2-0-0-----|---------------------------------|-0----|
|-----------------------------3-3-|-1-1-1-1-1-1-1-1-3-3-3-3-3-3-3-3-|------|


  S S S S S S S S S S S S S S S S
|---------------------------------|
|---------------------------------|
|-0-0-0-0-0-0-0-0-0-0-0-0-0-0-0-0-|
|---------------------------------|


  S S S S S S S S S S S S S S S S   S S S S S S S S S S S S S S S S
|---------------------------------|---------------------------------|
|---------------------------------|---------------------------------|
|-------------------------0-0-0-0-|---------------------------------|
|-1-1-1-1-1-1-1-1-3-3-3-3---------|-3-3-3-3-3-3-0-0-3-3-3-3-1-1-1-1-|


  S S S S S S S S S S S S S S S S
|---------------------------------|
|---------------------------------|
|---------------------------------|
|-0-0-0-0-0-0-0-0-0-0-0-0-0-0-0-0-|


  S S S S S S S S S S S S S S S S   S S S S S S S S S S S S S S S S
|---------------------------------|---------------------------------|
|---------------------------------|---------------------------------|
|---------------------------------|-3-3-3-3-3-3-3-3-3-3-3-3-3-3-----|
|-1-1-1-1-1-1-1-1-1-1-1-1-1-1-3-3-|-----------------------------3-3-|


                                    H.=H
  S S S S S S S S S S S S S S S S   H..       E
|---------------------------------|-------------|
|---------------------------------|-------------|
|---------------------------------|-0-----------|
|-1-1-1-1-1-1-1-1-3-3-3-3-3-3-3-3-|-----------3-|


 11:28
  Q=90
  H..       E   H    Q  Q    Q  E E Q  Q    H..       S S
|-------------|------------|--------------|----------------|
|-------------|------------|--------------|----------------|
|-------------|------------|--------------|----------------|
|-5---------0-|-1----3--5--|-3----3-3--1--|-0---------1-1--|


                                       H.=H         E.=40
                                     D.S.S. al Dbl. Coda
  H..       S S   H.      +E. S   H    Q  Q    H    +H
|---------------|---------------|------------|--------------|
|---------------|---------------|------------|--------------|
|-----------3-3-|-3-------(3)---|------------|--------------|
|-1-------------|-------------1-|-1----3--3--|-5----(5)-----|


 12:19
  Q=1H.=H
  &&
 3/4
  H.        H.        H.        H.        H.        H.
|---------|---------|---------|---------|---------|-------|
|---------|---------|---------|-2-------|---------|-------|
|-3-------|---------|-0-------|---------|-0-------|-------|
|---------|-3-------|---------|---------|---------|-3-----|


  Free Time ca Q=90
 4/4
  W          +W           +W           +W
|----------|------------|------------|--------|
|----------|------------|------------|--------|
|----------|------------|------------|--------|
|-1--------|-(1)--------|-(1)--------|-(1)----|


  W          +W           +W           +W
|----------|------------|------------|--------|
|----------|------------|------------|--------|
|----------|------------|------------|--------|
|-0--------|-(0)--------|-(0)--------|-(0)----|


                                                                 Q=75
  W          +W           +W           +W           +W           +W
|----------|------------|------------|------------|------------|--------|
|----------|------------|------------|------------|------------|--------|
|----------|------------|------------|------------|------------|--------|
|-5--------|-(5)--------|-(5)--------|-(5)--------|-(5)--------|-(5)----|


 13:04
  W          W          W          W          W
|----------|----------|----------|----------|------|
|----------|----------|----------|----------|------|
|----------|----------|----------|----------|------|
|----------|----------|----------|----------|------|


                                             13:36
  W          W          W          W          W
|----------|----------|----------|----------|------*|
|----------|----------|----------|----------|------*|
|----------|----------|----------|----------|------*|
|----------|----------|----------|----------|------*|



Duration Legend
---------------
W - whole; H - half; Q - quarter; E - 8th; S - 16th; T - 32nd; X - 64th; a - acciaccatura
+ - note tied to previous; . - note dotted; .. - note double dotted
Uncapitalized letters represent notes that are staccato (1/2 duration)
Irregular groupings are notated above the duration line
Duration letters will always appear directly above the note/fret number it represents the
duration for.  Duration letters with no fret number below them represent rests.  Multi-
bar rests are notated in the form Wxn, where n is the number of bars to rest for.  Low
melody durations appear below the staff

Tablature Legend
----------------
 h   - hammer-on
 p   - pull-off
 b   - bend
 pb  - pre-bend
 r   - bend release (if no number after the r, then release immediately)
 /\  - slide into or out of (from/to "nowhere")
 s   - legato slide
 S   - shift slide
 - natural harmonic
[n]  - artificial harmonic
n(n) - tapped harmonic
 ~   - vibrato
 tr  - trill
 T   - tap
 TP  - trem. picking
 PM  - palm muting
\n/  - tremolo bar dip; n = amount to dip
 \n  - tremolo bar down
 n/  - tremolo bar up
/n\  - tremolo bar inverted dip
 =   - hold bend; also acts as connecting device for hammers/pulls
 <> - volume swell (louder/softer)
 x   - on rhythm slash represents muted slash
 o   - on rhythm slash represents single note slash

Misc Legend
-----------
 |  - bar
||  - double bar
||o - repeat start
o|| - repeat end
*|  - double bar (ending)
 :  - bar (freetime)
 $  - Segno
 &  - Coda
Tempo markers -  = BPM(8/16=s8/s16), where s8 = swing 8ths, s16 = swing 16ths


            
            
Suggest correction
Creating personal tab
Creating personal tab
You can edit any tab online and save it as your Personal.

You can edit, replace or remove any tab part or add personal notes – all changes will be seen only by you.

Personal tabs can be accessed anytime from any device, even offline.
Learn more »
Give kudos to tab author, rate the tab!
1 2 3 4 5
comments
print report bad tab
guest
You may want to rate the tab now too:
select rating
Wanna post a correction for this tab? Suggest correction