Oops, an error
Loading. Please wait.

Keeper Of The Seven Keys tab

version 2
version 2

Whole song

Interactive

3,296 views 3 this week
1 commentread comment
1 2 3 4 5
1 last vote to show rating
add to favorites
×
Save as Personal and add changes to this tab that will be seen only by you. Learn more ›
×
You can save this tab as Personal to edit and correct it or add notes. All changes will be seen only by you. Learn more »
launch autoscroll
font size
0
reset
how to read this tab
guitar tuner
edit
Autoscroll
slow
fast
+/-
esc
set tempo
stop
#----------------------------------PLEASE NOTE---------------------------------#
#This file is the author's own work and represents their interpretation of the #
#song. You may only use this file for private study, scholarship, or research. #
#------------------------------------------------------------------------------#

KEEPER OF THE SEVEN KEYS
As recorded by Helloween
(From the 1988 Album KEEPER OF THE SEVEN KEYS PT. 2)

Transcribed by Asmogriff (ComfortablyDumb)
        

Words and Music by Michael Weikath
Arranged by Helloween

Gtr I (E A D G B E) - 'Nylon'
Gtr II (E A D G B E) - 'Nylon 2'
Gtr III (E A D G B E) - 'Elec Gtr Jazz'
Gtr IV (E A D G B E) - 'dist 1'
Gtr V (E A D G B E) - 'dist 2'
Gtr VI (E A D G B E) - 'Keyboard'

 00:00
  Q=75
                  Am                Am/G
 4/4
  Gtr I
  W               S S E   +H.
|---------------|-----------------------------------|
|---------------|-----------------------------------|
|---------------|-----------------------------------|
|---------------|-7p5-7---(7)-----------------------|
|---------------|-----------------------------------|
|---------------|-----------------------------------|
|
| Gtr II
| H..       S S   S S S S  S  S S S S S S S S S S S
|---------------|----------0----------------0-------|
|---------------|-------1-----1---------------1-----|
|---------------|-----2---------2---------2-----2---|
|---------------|---2-------------2-----2---------2-|
|-----------3-2-|-0-------------------0-------------|
|---------------|-------------------3---------------|


    Am/F#            N.C.
  a Q.           E   E   E   S S S S
|--------------------------------------|
|--------------------------------------|
|-7h9------------7---5---4-------------|
|------------------------------7-5-----|
|--------------------------------------|
|--------------------------------------|
|
|   S  S S S S S S S S S S S S S S S
|------------0-------------------------|
|--------------1-----------------------|
|----------2-----2---------------------|
|--------2-----------------------------|
|------0-----------0-----------0-2-3---|
|---2----------------0-1-2-3-4---------|


  Am              Am/C              Am/F#           N.C.
  ~
  H               H                 W
|---------------------------------|---------------------------------|
|---------------------------------|---------------------------------|
|---------------------------------|---------------------------------|
|-7-------------------------------|---------------------------------|
|---------------------------------|-0-------------------------------|
|---------------------------------|---------------------------------|
|
| S S S S S S S S S S S S S S S S   S S S S S S S S S S S S S S S S
|---------0---------------0-------|---------0-----------------------|
|-------1---1-----------1---1-----|-------1---1---------------------|
|-----2-------2-------2-------2---|-----2-------2-------------------|
|---2-----------2---2-------------|---------------------------------|
|-0---------------3-------------3-|---0-----------0-----------0-2-3-|
|---------------------------------|-2---------------0-1-2-3-4-------|


  Am              Am/G              Am/F#           N.C.
  Gtr II
  S S S S S S S S S S S S S S S S   S S S S S S S S S S S S S S S S
|---------0---------------0-------|---------0-----------------------|
|-------1---1---------------1-----|-----------1---------------------|
|-----2-------2---------2-----2---|-------2-----2-------------------|
|---2-----------2-----2---------2-|-----2---------------------------|
|-0-----------------0-------------|---0-----------0-----------0-2-3-|
|-----------------3---------------|-2---------------0-1-2-3-4-------|


  Am              Am/C              Am/F#           N.C.
  S S S S S S S S S S S S S S S S   S S S S S S S S S S S S S S S S
|---------0---------------0-------|---------0-----------------------|
|-------1---1-----------1---1-----|-------1---1---------------------|
|-----2-------2-------2-------2---|-----2-------2-------------------|
|---2-----------2---2-------------|---------------------------------|
|-0---------------3-------------3-|---0-----------0-----------0-2-3-|
|---------------------------------|-2---------------0-1-2-3-4-------|


  Am               Am/G               Am/F#            N.C.
   S S S S S S S S  S S S S S S S S    S S S S S S S S S S S S S S S S
|----------0----------------0-------|----------0-----------------------|
|--------1---1----------------1-----|------------1---------------------|
|------2-------2----------2-----2---|--------2-----2-------------------|
|----2-----------2------2---------2-|------2---------------------------|
|--0------------------0-------------|----0-----------0-----------0-2-3-|
|-------------------3---------------|--2---------------0-1-2-3-4-------|
|
| Gtr III
|  H                H                  W
|-17---------------19---------------|-20-------------------------------|
|-----------------------------------|----------------------------------|
|-----------------------------------|----------------------------------|
|-----------------------------------|----------------------------------|
|-----------------------------------|----------------------------------|
|-----------------------------------|----------------------------------|


  Am               Am/C
   S S S S S S S S  S S S S S S S S
|----------0----------------0-------|
|--------1---1------------1---1-----|
|------2-------2--------2-------2---|
|----2-----------2----2-------------|
|--0----------------3-------------3-|
|-----------------------------------|
|
|  H                H
|-17---------------19---------------|
|-----------------------------------|
|-----------------------------------|
|-----------------------------------|
|-----------------------------------|
|-----------------------------------|


                                     Q=97
  Am/F#            N.C.              Am
                                                Gtrs IV, V
   S S S S S S S S S S S S S S S S    H.      E S S
|----------0-----------------------|-^0--------------|
|--------1---1---------------------|-^1--------------|
|------2-------2-------------------|-^2--------------|
|----------------------------------|-^2---------2-2--|
|----0-----------0-----------0-2-3-|-^0---------2-2--|
|--2---------------0-1-2-3-4-------|------------0-0--|
|
|  W                                  W
|-22-------------------------------|-24--------------|
|----------------------------------|-----------------|
|----------------------------------|-----------------|
|----------------------------------|-----------------|
|----------------------------------|-----------------|
|----------------------------------|-----------------|


 00:41
  A5        E5    F5   G5 A5   G5          F5   E5        F5
                                    PM|
  H..       S S   H    Q  Q    Q.   S S Q  Q    H..       S S
|---------------|------------|----------------|----------------|
|---------------|------------|----------------|----------------|
|-2-------------|---------2--|----------------|----------------|
|-2---------2-2-|-3----5--2--|-5--------5--3--|-2---------3-3--|
|-0---------2-2-|-3----5--0--|-5--------5--3--|-2---------3-3--|
|-----------0-0-|-1----3-----|-3----0-0-3--1--|-0---------1-1--|


  F5        C5               F5   G5     A5        E5
  H..       S S   W          H    H      H..       S S
|---------------|----------|-----------|---------------|
|---------------|----------|-----------|---------------|
|-----------5-5-|-5--------|-----------|-2-------------|
|-3---------5-5-|-5--------|-3----5----|-2---------2-2-|
|-3---------3-3-|-3--------|-3----5----|-0---------2-2-|
|-1-------------|----------|-1----3----|-----------0-0-|


  A5        E5    F5   G5 A5   G5          F5
                                    PM|
  H..       S S   H    Q  Q    Q.   S S Q  Q
|---------------|------------|----------------|
|---------------|------------|----------------|
|-2-------------|---------2--|----------------|
|-2---------2-2-|-3----5--2--|-5--------5--3--|
|-0---------2-2-|-3----5--0--|-5--------5--3--|
|-----------0-0-|-1----3-----|-3----0-0-3--1--|


                                                       H.=H   Q=70
  E5             F5              C5               F5   G5     A5
  Gtr IV
                       ~~~~~~~~~~~~~~~~~~~~~~~~~~~~~~~~~~
  H      E S S E S S   W               W          H    H      W
|--------------------|---------------|-5--------|-6----5----|------|
|----------3S5S3-6S8S|=6-------------|-5--------|-8---------|-8----|
|----------4S5S4-7S9S|=7-------------|----------|------7----|-5----|
|-2------------------|---------------|----------|-----------|------|
|-2------------------|---------------|----------|-----------|------|
|-0------------------|---------------|----------|-----------|------|
|
| Gtr V
| H..            S S   H..       S S   W          H    H      W
|--------------------|---------------|----------|-----------|------|
|--------------------|---------------|----------|-----------|------|
|--------------------|-----------5-5-|-5--------|-----------|-2----|
|-2--------------3-3-|-3---------5-5-|-5--------|-3----5----|-2----|
|-2--------------3-3-|-3---------3-3-|-3--------|-3----5----|-0----|
|-0--------------1-1-|-1-------------|----------|-1----3----|------|


    Q=139
    $
    Am                                F
    Gtr IV
    PM--------------------------------------------------------------|
    S S S S S S S S S S S S S S S S   S S S S S S S S S S S S S S S S
||----------------------------------|----------------------------------|
||o---------------------------------|----------------------------------|
||----------------------------------|-2-------2-------2-------2--------|
||----------------------------------|---3-3-3---3-3-3---3-3-3---3-3-3--|
||o-3-0-0-0-3-0-0-0-3-0-0-0-3-0-0-0-|----------------------------------|
||----------------------------------|----------------------------------|
|
|   Gtr V
|   PM--------------------------------------------------------------|
|   S S S S S S S S S S S S S S S S   S S S S S S S S S S S S S S S S
||----------------------------------|----------------------------------|
||o---------------------------------|-1-------1-------1-------1--------|
||----------------------------------|---2-2-2---2-2-2---2-2-2---2-2-2--|
||--2-------2-------2-------2-------|----------------------------------|
||o---3-3-3---3-3-3---3-3-3---3-3-3-|----------------------------------|
||----------------------------------|----------------------------------|


  G                                 E
  PM----------------------------------------------|
  S S S S S S S S S S S S S S S S   S S S S S S S S S S S S S S S S
|---------------------------------|---------------------------------|
|---------------------------------|-----------------5-5-5-5-5-3-----|
|-4-0-0-0-4-0-0-0-4-0-0-0-4-0-0-0-|-1-------1-------------------5-4-|
|---------------------------------|---2-2-2---2-2-2-----------------|
|---------------------------------|---------------------------------|
|---------------------------------|---------------------------------|
|
| PM----------------------------------------------|
| S S S S S S S S S S S S S S S S   S S S S S S S S S S S S S S S S
|---------------------------------|-----------------3-3-3-3-3-1-0---|
|-3-0-0-0-3-0-0-0-3-0-0-0-3-0-0-0-|-------------------------------3-|
|---------------------------------|-4-1-1-1-4-1-1-1-----------------|
|---------------------------------|---------------------------------|
|---------------------------------|---------------------------------|
|---------------------------------|---------------------------------|


  F                                 C
  PM----------------------------------------------|
  S S S S S S S S S S S S S S S S   S S S S S S S S S S S S S S S S
|---------------------------------|---------------------------------|
|---------------------------------|-1-------1-------5-5-5-5-5-3-----|
|-2-------2-------2-------2-------|---2-2-2---2-2-2-------------5-4-|
|---3-3-3---3-3-3---3-3-3---3-3-3-|---------------------------------|
|---------------------------------|---------------------------------|
|---------------------------------|---------------------------------|
|
| PM----------------------------------------------|
| S S S S S S S S S S S S S S S S   S S S S S S S S S S S S S S S S
|---------------------------------|-0-------0-------3-3-3-3-3-1-0---|
|-1-------1-------1-------1-------|---1-1-1---1-1-1---------------3-|
|---2-2-2---2-2-2---2-2-2---2-2-2-|---------------------------------|
|---------------------------------|---------------------------------|
|---------------------------------|---------------------------------|
|---------------------------------|---------------------------------|


                                   1.            2.
  F               G                 A5           A5
  PM----------------------------|
  S S S S S S S S S S S S S S S S   W            W
|---------------------------------|-----------||-------------------|
|---------------------------------|----------o||-------------------|
|-2-------2-------4-0-0-0-4-0-0-0-|-2---------||-2-----------------|
|---3-3-3---3-3-3-----------------|-2---------||-2-----------------|
|---------------------------------|-0--------o||-0-----------------|
|---------------------------------|-----------||-------------------|
|
| PM----------------------------|
| S S S S S S S S S S S S S S S S   W            Q.    E   +H
|---------------------------------|-----------||-------------------|
|-1-------1-------3-0-0-0-3-0-0-0-|----------o||-------------------|
|---2-2-2---2-2-2-----------------|-2---------||-2----<5>-(<5>)----|
|---------------------------------|-2---------||-2-----------------|
|---------------------------------|-0--------o||-0-----------------|
|---------------------------------|-----------||-------------------|


 01:50 + 03:34
  Q=132
  F                 E                 G                 Am/C
  Gtrs IV, V
            PM--|             PM------|     PM  PM------|         PM--|
  E E E E E E E E   E E E E E E E E   E E E E E E E E   E E E E E E E E
|-----------------|-----------------|-----------------|-----------------|
|-----------------|-----------------|-----------------|-----------------|
|-----------------|-----------------|-----------------|-----------------|
|-----------------|-----------------|-----------------|---2p0---2-------|
|---3p1p0-3-------|---2p0---2-------|---5p3-2-5-------|-3-----3---3-3-3-|
|-1---------1-1-1-|-0-----4---0-0-0-|-3---------3-3-3-|-----------------|


  F                 C                 E                 G
  PM        PM------|     PM  PM--|             PM--|   PM--------|PM-----|
  E E E E E E E E   E E E E E E E E   E E E E E E E E   H       E  E   E   E
|-----------------|-----------------|-----------------|-----------------------|
|-----------------|-----------------|-----------------|-----------------------|
|-----------------|-----------------|-----------------|-----------<2>-<2>-<2>-|
|-----------------|---2p0---2-------|-----------------|-----------<5>-<5>-<5>-|
|---3p1p0-3-------|-3-----3---3-3-3-|---2p0---2-------|---5p3-2-5-------------|
|-1---------1-1-1-|-----------------|-0-----4---0-0-0-|-3---------------------|
                                                        E E E E E  E   E   E


    H.=40
    N.C.
   6/4
    S S S S S S S S S S S S S S S S S S S S S S S S
||--------------------------------------------------|
||o-------------------------------------------------|
||--------------------------------------------------|
||--3-3-3-3-2-2-0-0-0-0-5-3-2-2-0-0-----------------|
||o---------------------------------3-3-0-0-0-0-----|
||----------------------------------------------3-3-|


  Q=158
  N.C.                N.C.
 3/4
  Gtr IV
  |-3-| |-3-| |-3-|   |-3-| |-3-| |-3-|
  E E E E E E E E E   E E E E E E E E E
|-------------------|-------------------|
|-------------------|-------------------|
|-------------------|-------------------|
|-------------------|-------0-0-0-2-2-2-|
|-------------0-0-0-|-3-3-3-------------|
|-1-1-1-3-3-3-------|-------------------|
|
| Gtr V
| |-3-| |-3-| |-3-|   |-3-| |-3-| |-3-|
| E E E E E E E E E   E E E E E E E E E
|-------------------|-------------------|
|-------------------|-------------------|
|-------------------|-------------0-0-0-|
|-------------------|-2-2-2-3-3-3-------|
|-0-0-0-2-2-2-3-3-3-|-------------------|
|-------------------|-------------------|


  N.C.                N.C.
  |-3-| |-3-| |-3-|   |-3-| |-3-| |-3-|
  E E E E E E E E E   E E E E E E E E E
|-------------------|---------------------||
|-------------------|--------------------o||
|-------------------|---------------------||
|-------------------|---------------------||
|-3-3-3-2-2-2-0-0-0-|--------------------o||
|-------------------|-3-3-3-1-1-1-0-0-0---||
|
| |-3-| |-3-| |-3-|   |-3-| |-3-| |-3-|
| E E E E E E E E E   E E E E E E E E E
|-------------------|---------------------||
|-------------------|--------------------o||
|-------------------|---------------------||
|-2-2-2-0-0-0-------|---------------------||
|-------------3-3-3-|-2-2-2-0-0-0--------o||
|-------------------|-------------3-3-3---||


  Q=120      Q=90    H.=H              Q=85
  A5                                   F5 G5
 4/4
  W          E E E E E E E E   E E E E Q  Q
|----------|-----------------|---------------|
|----------|-----------------|---------------|
|-2--------|-----------------|---------------|
|-2--------|---------------2-|-----2-3-------|
|-0--------|---2-3-5-2-3-5---|-3-5--------2--|
|----------|-5---------------|---------5-----|
|
| W          E E E E E E E E   E E E E Q  Q
|----------|-----------------|---------------|
|----------|-----------------|---------------|
|-2--------|-----------------|-------2-------|
|-2--------|-----2-3---2-3-5-|-2-3-5---3--5--|
|-0--------|-3-5-----5-------|---------3--5--|
|----------|-----------------|---------1--3--|


 02:28 + 04:12 + 11:51
  Q=88
  $$
  C5          G5   A5          G5   F5   G5     C5     C5C5 B5
  Gtrs IV, V
       PM|              PM|
  Q.   S S Q  Q    Q.   S S Q  Q    H    H      Q.   S S Q  Q
|----------------|----------------|-----------|-----------------|
|----------------|----------------|-----------|-----------------|
|-5--------5-----|-2--------2-----|-----------|-5----5-5-5--4---|
|-5--------5--5--|-2--------2--5--|-3----5----|-5----5-5-5--4---|
|-3--------3--5--|-0--------0--5--|-3----5----|-3----3h5-3--2---|
|------3-3----3--|------0-0----3--|-1----3----|-----------------|
|
| Gtr VI
| H        Q  Q    H        Q  Q    H    H      H        Q  Q
|-0--------1--3--|-0-----------0--|------3----|-0--------0------|
|-1--------3--5--|-1--------3--1--|-1----0----|-1--------1--4---|
|----------------|----------4-----|-2---------|-------------4---|
|----------------|----------------|-----------|-----------------|
|----------------|----------------|-----------|-----------------|
|----------------|----------------|-----------|-----------------|


  Q=90
  C5   E5         C5    A5         F5   C5              A5   G5
  Gtr IV
  Q  E E +H       E E E E +H       Q  E E +H            Q  E E +H
|---------------|----------------|--------------------|-------------------|
|---------------|----------------|--------------------|-------------------|
|-5----9-(9)----|-5-5---2-(2)----|------5-(5)---------|-2-----------------|
|-5----9-(9)----|-5-5---2-(2)----|-3----5-(5)---------|-2----5-(5)--------|
|-3----7-(7)----|-3-3---0-(0)----|-3----3-(3)---------|-0----5-(5)--------|
|---------------|----------------|-1------------------|------3-(3)--------|
|
| Gtr V
| Q  E E +H       E E E E +H       Q  E E +E  a E E E   Q  E E +E  E E E
|---------------|----------------|--------------------|-------------------|
|---------------|----------------|--------------------|-------------------|
|-5----9-(9)----|-5-5---2-(2)----|------5-(5)---------|-2-----------------|
|-5----9-(9)----|-5-5---2-(2)----|-3----5-(5)---------|-2----5-(5)--------|
|-3----7-(7)----|-3-3---0-(0)----|-3----3-(3)-5S7-5-3-|-0----5-(5)---0-2--|
|---------------|----------------|-1------------------|------3-(3)-3------|


                         To Dbl. Coda
  C5    E5         C5     A5
  Q   E E +H       E  E E  E  +H
|----------------|-------------------|
|----------------|-------------------|
|-5-----9-(9)----|-5--5----2--(2)----|
|-5-----9-(9)----|-5--5----2--(2)----|
|-3-----7-(7)----|-3--3----0--(0)----|
|----------------|-------------------|
|
| Q   E E +H       E  E E  E  +H
|----------------|-------------------|
|----------------|-------------------|
|-5-----9-(9)----|-5--5----2--(2)----|
|-5-----9-(9)----|-5--5----2--(2)----|
|-3-----7-(7)----|-3--3----0--(0)----|
|----------------|-------------------|
|
| Gtr VI
| Q.    E +H       Q.      E  +H
|-8-----7-(7)----|-8------12-(12)----|
|-8-----9-(9)----|-8------10-(10)----|
|----------------|-------------------|
|----------------|-------------------|
|----------------|-------------------|
|----------------|-------------------|


  F5     C5              A5     G5
   Q   E E +H             Q   E  E  +H
|----------------------|-----------------------|
|----------------------|-----------------------|
|--------5-(5)---------|--2--------------------|
|--3-----5-(5)---------|--2------5--(5)--------|
|--3-----3-(3)---------|--0------5--(5)--------|
|--1-------------------|---------3--(3)--------|
|
|  Q   E E +E  a E E E    Q   E  E  +E  E E E
|----------------------|-----------------------|
|----------------------|-----------------------|
|--------5-(5)---------|--2--------------------|
|--3-----5-(5)---------|--2------5--(5)--------|
|--3-----3-(3)-5S7-5-3-|--0------5--(5)---0-2--|
|--1-------------------|---------3--(3)-3------|
|
|  Q.    E +H             Q.     E  +H
|--8-----8-(8)---------|--8-----10-(10)--------|
|-10-----8-(8)---------|-10------8--(8)--------|
|----------------------|-----------------------|
|----------------------|-----------------------|
|----------------------|-----------------------|
|----------------------|-----------------------|


                        To CodaD.S. al Coda  &
  F5     C5                 C5
                   2/4          3/4
                     PM---|
   Q   E E +H        E  E E  E    +H.         +H     +E  S S
|-----------------|------------|-----------|-----------------|
|-----------------|------------|-----------|-----------------|
|--------5-(5)----|----------5-|--(5)------|--(5)----(5)-----|
|--3-----5-(5)----|----------5-|--(5)------|--(5)----(5)-----|
|--3-----3-(3)----|----------3-|--(3)------|--(3)----(3)-3-2-|
|--1--------------|--3--3-3----|-----------|-----------------|
|
|                    PM---|
|  Q   E E +H        E  E E  E    +H.         +H     +E  S S
|-----------------|------------|-----------|-----------------|
|-----------------|------------|-----------|-----------------|
|--------5-(5)----|----------5-|--(5)------|--(5)----(5)-----|
|--3-----5-(5)----|----------5-|--(5)------|--(5)----(5)-----|
|--3-----3-(3)----|----------3-|--(3)------|--(3)----(3)-3-2-|
|--1--------------|--3--3-3----|-----------|-----------------|
|
|  Q.    E +H        Q.      E    +H.         +H.
|--8-----8-(8)----|-10------12-|-(12)------|-(12)------------|
|-10-----8-(8)----|--8------13-|-(13)------|-(13)------------|
|-----------------|------------|-----------|-----------------|
|-----------------|------------|-----------|-----------------|
|-----------------|------------|-----------|-----------------|
|-----------------|------------|-----------|-----------------|


 04:50
  Q=95
  A5         A5
 4/4
                                        PM--|
                                        |-3-|
  W           E     E      +H      +E   S S S
|----------|----------------------------------|
|----------|--------------------------------x-|
|-2--------|-12b14-12b14==(12)----(12)r---x---|
|-2--------|----------------------------x-----|
|-0--------|----------------------------------|
|----------|----------------------------------|
|
| W           W
|----------|----------------------------------|
|----------|----------------------------------|
|-2--------|--2-------------------------------|
|-2--------|--2-------------------------------|
|-0--------|--0-------------------------------|
|----------|----------------------------------|


                    G5
                                              ~~~~~~~~~
                     |--------7--------|
   S  S  T  T  T  T  S  S  S  S  S  S  S  S   E.  +Q
|-13p12-13p12-------------------------------------------------|
|-------------15p13-15p13p12-13p12----------------------------|
|----------------------------------14p12-14p[12]-(12)\--------|
|-------------------------------------------------------------|
|-------------------------------------------------------------|
|-------------------------------------------------------------|
|
|  PM---------|
|  S  S  S     S     H                             S   S S S
|-------------------------------------------------------------|
|-------------------------------------------------------------|
|-------------------------------------------------------------|
|--------------------5----------------------------------------|
|--------------------5----------------------------------------|
|--3--3--3-----3-----3-----------------------------3---2-3-4--|


  A5                                                   G5
                                                              ~
            |-3-|                   |-3-|
  S S S T T S S S S S S S S S S T T S S S   Q..          +S   H
|-----------------------------------------|------------------------------|
|-7-5-6-5h6p5-----------------------------|------------------------------|
|-------------7p5-7-5-4-------------------|------------------------------|
|-----------------------7-5-3-------------|------------------------------|
|-----------------------------7-5-3-2-----|-3b5==========(3)r-2----------|
|-------------------------------------5-3-|------------------------------|
|
|                                           PM-------|
| W                                         S    S S S H         S S S S
|-----------------------------------------|------------------------------|
|-----------------------------------------|------------------------------|
|-2---------------------------------------|------------------------------|
|-2---------------------------------------|------------5-----------------|
|-0---------------------------------------|------------5-----------------|
|-----------------------------------------|-3----3-3-3-3---------3-2-3-4-|


  A5                         F5
                                    ~
   Q   Q  Q  Q    Q          E  S S Q  +E      S  S
|---------------|-----------------------------------|
|---------------|-----------------------------17-18-|
|-[2]--4--5-----|-7b9========7r-7p5-7--(7)/---------|
|------------7--|-----------------------------------|
|---------------|-----------------------------------|
|---------------|-----------------------------------|
|
|                 PM-------|
|  W              S    S S S H          S   S  S  S
|---------------|-----------------------------------|
|---------------|-----------------------------------|
|--2------------|-----------------------------------|
|--2------------|------------3----------------------|
|--0------------|------------3----------3S==5--5S=7-|
|---------------|-1----1-1-1-1----------1S==3--3S=5-|


  N.C.
   Q      Q      Q        Q
|--------22-----20-------19-------|
|-20------------------------------|
|---------------------------------|
|---------------------------------|
|---------------------------------|
|---------------------------------|
|
|  PM---------------------------|
|  E S S  E S S  S S S S  S S S S
|---------------------------------|
|---------------------------------|
|---------------------------------|
|---------------------------------|
|---------------------------------|
|--3-3-3--3-3-3--3-3-3-3--3-3-3-3-|


   05:10
    Gtrs IV, V
        PM|     PM|     PM|     PM|       PM|
    S S S S S S S S S S S S S S S S   S S S S S S S S E E S S S S
||----------------------------------|------------------------------|
||o---------------------------------|------------------------------|
||----------------------------------|------------------------------|
||--7S9-9-9-9S7-7-7-7S9-9-9-9S4-4-4-|-4S5-5-5-5-2-2-2-4------------|
||o-5S7-7-7-7S5-5-5-5S7-7-7-7S2-2-2-|-2S3-3-3-3-0-0-0-2------------|
||----------------------------------|---------------------5-3-2-0--|


                                                                     1.
       C/G                                     D5
  Gtr IV
        \1___________/
  +Q    H.          +Q     +H.          +S  E. H.        +W           +W
|----------------|--------------------|----------------|------------|---------||
|------<5>-------|-(<5>)--(<5>)-------|-(5)------------|------------|--------o||
|------<5>-------|-(<5>)--(<5>)-------|-(5)----7-------|-(7)--------|-(7)-----||
|------<5>-------|-(<5>)--(<5>)-------|-(5)----7-------|-(7)--------|-(7)-----||
|----------------|--------------------|--------5-------|-(5)--------|-(5)----o||
|-(0)------------|--------------------|----------------|------------|---------||
|
| Gtr V
| +W                +H.            Q     Q     H.        +W           +W
|----------------|--------------------|----------------|------------|---------||
|----------------|--------------------|----------------|------------|--------o||
|----------------|--------------------|--------7-------|-(7)--------|-(7)-----||
|----------------|--------------------|--------7-------|-(7)--------|-(7)-----||
|----------------|-----------------x--|--------5-------|-(5)--------|-(5)----o||
|-(0)------------|--(0)------------x--|----------------|------------|---------||


                             05:45
  2.
                              \1
                                                     ~~~~~
  +Q..   S    +Q   +E. a S    H            Q         Q
|--------------------------||---------------------------------|
|--------------------------||-------------22b24-----22b24-----|
|-(7)----4b7==(4)--(4)r4S9-||---------------------------------|
|-(7)----------------------||---------------------------------|
|-(5)----------------------||---------------------------------|
|--------------------------||-0-------------------------------|
|
| +W                          S  S S S Q   S    S E  S    S E
|--------------------------||---------------------------------|
|--------------------------||---------------------------------|
|-(7)----------------------||---------------------------------|
|-(7)----------------------||-------------------------------7-|
|-(5)----------------------||---------------------5--7S===9---|
|--------------------------||-7--7-7-5-7---5h===7-------------|


                                                     ~~~
                               |--3--|
   S  S  S     S      S  +S    S  S  S  S     +E.    Q
|-19-21-21b22-21b22==21-(21)r-19----------------------------|
|--------------------------------22-19-22b24-(22)---22\-----|
|-----------------------------------------------------------|
|-----------------------------------------------------------|
|-----------------------------------------------------------|
|-----------------------------------------------------------|
|
|  S  S  S     S      Q                 S      S  E  S  S E
|-----------------------------------------------------------|
|-----------------------------------------------------------|
|-----------------------------------------------------------|
|-----------------------------------------------------------|
|-------------------------------------------------5--4------|
|--7--7--7-----5------7-----------------5h=====7--------7-5-|


                                 ~~                ~~~
   T      +S     T  T   T  T  T  Q   E       a  E  Q
|--------------------------------------------------------|
|----------------------12-15-12-----17b19---19S22-19-----|
|-14b16==(14)---14-14r----------14-----------------------|
|--------------------------------------------------------|
|--------------------------------------------------------|
|--------------------------------------------------------|
|
|  S          S     S      S     Q   S    S     E  S S E
|--------------------------------------------------------|
|--------------------------------------------------------|
|--------------------------------------------------------|
|------------------------------------------------------7-|
|-----------------------------------------------5--7S9---|
|--7----------7-----7------5-----7---5h===7--------------|


                      ~~~~~~~~
              |3| |3|
   +S   S S S E S E S Q     Q
|----------------------------------|
|-(19)\----------------------------|
|---------9-9-7---6---6------------|
|-------9-------9---9--------------|
|----------------------------------|
|---------------------------9------|
|
|   S   S S S Q       S S E S S E
|----------------------------------|
|----------------------------------|
|----------------------------------|
|----------------------------------|
|-------------------------5-4------|
|---7---7-7-5-7-------5h7-----7-5--|


  |---------7---------| |-----7-----| |-----6-----| |-----6-----|
  S  S   S  S   S S   S S S S S S S S S S   S S S S S S   S S S S
|-----------------------------------------------------------------|
|-----------------------------------------------------------------|
|-------------------------------------------7-----7---7h==9p7---7-|
|---------------------------------7---7h9-----7h9---9---------9---|
|--------7------7h9p==7-9p7-9p7-9---9-----------------------------|
|-7h10-----10-----------------------------------------------------|
|
| S    S      S     S   Q             S   S   E     S   S   E
|-----------------------------------------------------------------|
|-----------------------------------------------------------------|
|-----------------------------------------------------------------|
|-----------------------------------------------------------7-----|
|---------------------------------------------5-----7S==9---------|
|-7----7------7-----5---7-------------5h==7-----------------------|


                          ~~~~~~~
                                      |-----6------|
   Q            +E       +E  +Q     a S  S   S S S S
|------------------------------------------------------|
|----------------------------------------7---8p7h8p7h==|
|-[9]b11r======([9])b11==(9)-(9)----xS9r---------------|
|------------------------------------------------------|
|------------------------------------------------------|
|------------------------------------------------------|
|
|  S     S S S   Q            S S E   S    S   E
|------------------------------------------------------|
|------------------------------------------------------|
|------------------------------------------------------|
|------------------------------------------------------|
|---------------------------------5---4----------------|
|--7-----7-7-5---7------------5h7----------7---5-------|


                                               ~~
  |----6-----|
  T T T T T  T  S S S S  S   S   S S  S   S  S E.
|---------------------------------------------------|
|-8p7h8p7h8h10-10-8-7-------------------------------|
|---------------------9-<8>-<7>-<9>7-<7>-<9>-7-6----|
|---------------------------------------------------|
|---------------------------------------------------|
|---------------------------------------------------|
|
| S     S       S S Q            S S  E      S S  E
|---------------------------------------------------|
|---------------------------------------------------|
|---------------------------------------------------|
|-------------------------------------------------7-|
|-------------------------------------5------7S9----|
|-7-----7-------7-5-7------------5h7----------------|


       PM------------|
                       |-3-|
   S S S S S S S S S S S S S Q
|-------------------------------------|
|-------------------------------------|
|-/7-6-7---6--------------------------|
|--------9---9-7----------------------|
|----------------9-7-5-5p4h5-4tr5-----|
|-------------------------------------|
|
|  S S S S Q       S S E     S    S E
|-------------------------------------|
|-------------------------------------|
|-------------------------------------|
|-------------------------------------|
|----------------------5-----4--------|
|--7-7-7-5-7-------5h7------------7-5-|


   06:04
    Gtrs IV, V
    S S S S E S S S S S S S S S S   S S S S E S S S S S S S S S S
||--------------------------------|--------------------------------||
||o-------------------------------|-------------------------------o||
||--------------------------------|--------------------------------||
||----------7---------------------|---------7----------------------||
||o-7h9-9-9---7-9-9-7-------9-----|-7h9-9-9---7-9-9-7-------9-----o||
||--------------------9-8-7---8h9-|-------------------9-8-7---8h9--||


    Gtr IV
        PM|                                   PM|
    S S S S S S S S +S  S S  S S  S S S   S S S S S S S S +S  S S  S S  S S S
||--------------------------------------|--------------------------------------|
||o-------------------------------------|--------------------------------------|
||--------------------------------------|--------------------------------------|
||--7S9-----9---7-9-(9)--------7--------|-7S9-----9---7-9-(9)--------7---------|
||o-5S7-7-7-7---5-7-(7)-7-9-10---10-9-5-|-5S7-7-7-7---5-7-(7)-7-9-10---10-9-5--|
||--------------------------------------|--------------------------------------|
|
|   Gtr V
|       PM|                                   PM|
|   S S S S S S S S +S  S S  S S  S S S   S S S S S S S S +S  S S  S S  S S S
||--------------------------------------|--------------------------------------|
||o-------------------------------------|--------------------------------------|
||---------------------------4-5--4-----|--------------------------4-5--4------|
||--7S9-----9---4-5-(5)-5-7---------7-4-|-7S9-----9---4-5-(5)-5-7---------7-4--|
||o-5S7-7-7-7---------------------------|-5S7-7-7-7----------------------------|
||--------------------------------------|--------------------------------------|


  C5   D5     B5   E5       C5   D5
  Gtrs IV, V
  H    H      H    Q  Q     H    H
|-----------|-------------|------------||
|-----------|-------------|-----------o||
|-5----7----|------9--9\--|-5----7-----||
|-5----7----|-9----9--9\--|-5----7-----||
|-3----5----|-9----7--7\--|-3----5----o||
|-----------|-7-----------|------------||


    Gtr IV
        PM----|         PM--------|       PM--------|
    S S S S S S S S S S S S S S S S   S S S S S S S S S S S S S S S S
||----------------------------------|----------------------------------||
||o---------------------------------|---------------------------------o||
||----------------------------------|----------------------------------||
||----------------------------------|-----------------4p2-3---2--------||
||o---------------------------------|-----------------------4---3-4p0-o||
||--0h2-2-2-2-2-0h2-0h2-2-2-2-2-2-2-|-0h2-2-2-2-2-2-2------------------||
|
|   Gtr V
|       PM----|         PM--------|       PM--------|
|   S S S S S S S S S S S S S S S S   S S S S S S S S S S S S S S S S
||----------------------------------|----------------------------------||
||o---------------------------------|---------------------------------o||
||----------------------------------|-----------------2p0-1---0--------||
||----------------------------------|-----------------------2---1-2----||
||o---------------------------------|-------------------------------4-o||
||--0h2-2-2-2-2-0h2-0h2-2-2-2-2-2-2-|-0h2-2-2-2-2-2-2------------------||


  Gtrs IV, V
  PM--------|                         PM------|
  E S S S S S S S S S S S S S S   S S S S S S S S S S S S S S S S
|-------------------------------|---------------------------------|
|-------------------------------|---------------------------------|
|-------------------------------|---------------------------------|
|-------------------------------|---------------------------------|
|-------------5h7---------------|-5h7-----------5h7---------------|
|-0-0-0-0-0-0-----0-5p0-4p0-2p0-|-----0-0-0-0-0-----0-5p0-4p0-2p0-|


  Gtr IV
      PM----|         PM--------|       PM--------|
  S S S S S S S S S S S S S S S S   S S S S S S S S S S S S S S S S
|---------------------------------|----------------------------------|
|---------------------------------|----------------------------------|
|---------------------------------|----------------------------------|
|---------------------------------|-----------------4p2-3---2--------|
|---------------------------------|-----------------------4---3-4p0--|
|-0h2-2-2-2-2-0h2-0h2-2-2-2-2-2-2-|-0h2-2-2-2-2-2-2------------------|
|
| Gtr V
|     PM----|         PM--------|       PM--------|
| S S S S S S S S S S S S S S S S   S S S S S S S S S S S S S S S S
|---------------------------------|----------------------------------|
|---------------------------------|----------------------------------|
|---------------------------------|-----------------2p0-1---0--------|
|---------------------------------|-----------------------2---1-2----|
|---------------------------------|-------------------------------4--|
|-0h2-2-2-2-2-0h2-0h2-2-2-2-2-2-2-|-0h2-2-2-2-2-2-2------------------|


   06:59
    Q=190
    Gtrs IV, V
    PM-----------------------------------
    E E E E E E E E   E E E E E E E E
||------------------|------------------||
||o-----------------|-----------------o||
||------------------|------------------||
||------------------|------------------||
||o-----------------|-----------------o||
||--0-0-0-0-0-0-0-0-|-0-0-0-0-0-0-0-0--||


 ---------------------------------------------------|
  E E E E E E E E   E E E E E E E E   E E E E E E E E
|-----------------|-----------------|-------------------|
|-----------------|-----------------|-------------------|
|-----------------|-----------------|-------------------|
|-----------------|-----------------|-------------------|
|-----------------|---------5-5-5-5-|-3-3-3-3-5-5-5-5---|
|-0-0-0-0-3-3-3-3-|-5-5-5-5---------|-------------------|


                                                                          E5
  PM------------------------------------------------------------------|
  E E E E E E E E   E E E E E E E E   E E E E E E E E   E E E E E E E E   W
|-----------------|-----------------|-----------------|-----------------|------|
|-----------------|-----------------|-----------------|-----------------|------|
|-----------------|-----------------|-----------------|-----------------|-9----|
|-----------------|-----------------|-----------------|-----------------|-9----|
|-----------------|-----------------|---------5-5-5-5-|---------5-5-6-6-|-7----|
|-3-3-2-2-0-0-0-0-|-0-0-0-0-3-3-3-3-|-5-5-5-5---------|-7-7-7-7---------|------|


  E5   G5     A5   D5     C5   D5     G5 F#5E5
  H    H      H    H      H    H      Q  Q  H
|-----------|-----------|-----------|------------|
|-----------|-----------|-----------|------------|
|-----------|------7----|-5----7----|------------|
|-2----5----|-7----7----|-5----7----|-5--4--2----|
|-2----5----|-7----5----|-3----5----|-5--4--2----|
|-0----3----|-5---------|-----------|-3--2--0----|


  E5   G5     A5   D5     B5   D5 Eb5
  H    H      H    H      H    Q  Q
|-----------|-----------|------------|
|-----------|-----------|------------|
|-----------|------7----|------7--8--|
|-2----5----|-7----7----|-9----7--8--|
|-2----5----|-7----5----|-9----5--6--|
|-0----3----|-5---------|-7----------|


 07:25
  Q=120
  Em
  Gtr IV
               \1
   W          +W
|-----------|-----------------|
|-----------|-----------------|
|--9--------|-(9)-------------|
|--9--------|-(9)-------------|
|--7--------|-(7)-------------|
|-----------|-----------------|
|
| Gtr II
|  W           E  H..
|--7--------|-----7-----------|
|--9--------|-10--9-----------|
|--7--------|--7--7-----------|
|--9--------|--9--9-----------|
|--7--------|--7--7-----------|
|-----------|-----------------|
|
| Gtr I
|  W          +H         H
|-^0--------|-(0)-------^0----|
|-^0--------|-(0)-------^0----|
|-^0--------|-(0)-------^0----|
|-^2--------|-(2)-------^2----|
|-^2--------|-(2)-------^2----|
|-^0--------|-(0)-------^0----|


  D
  Gtr III
   ~~~~~~~~~~~~~~~~~~~~~~                 ~~~
   Q.        H      +E          H         Q.    E
|----------------------------|-----------12-------|
|-17b19====(17)----(17)r-----|--------------------|
|----------------------------|-----------------12-|
|----------------------------|--------------------|
|----------------------------|--------------------|
|----------------------------|--------------------|
|
|  /                 |
|  H..              +S   +S     E  H..
|----------------------------|--------------------|
|--7----------------(7)--(7)-|--8--7--------------|
|--7----------------(7)--(7)-|--7--7--------------|
|--7----------------(7)--(7)-|--7--7--------------|
|--5----------------(5)--(5)-|--5--5--------------|
|----------------------------|--------------------|
|
|  W                           +H         H
|-^2-------------------------|-(2)-------^2-------|
|-^3-------------------------|-(3)-------^3-------|
|-^2-------------------------|-(2)-------^2-------|
|-^0-------------------------|-(0)-------^0-------|
|----------------------------|--------------------|
|----------------------------|--------------------|


     C                      D
             ~~~                   ~~~
   a  E   E  H.              E  E  H.
|-----------------------|---------------------|
|--------15-15----------|---------------------|
|-14h15-----------------|---12h14-14----------|
|-----------------------|---------------------|
|-----------------------|---------------------|
|-----------------------|---------------------|
|
|  a  Q.        Q.   Q    a  Q.       Q.   Q
|-----------------------|---------------------|
|---------------5----8--|---------------------|
|--4S=5-----------------|-5S=7--------9----7--|
|-----------------------|---------------------|
|-----------------------|---------------------|
|-----------------------|---------------------|
|
|     W                      W
|----^0-----------------|---^2----------------|
|----^1-----------------|---^3----------------|
|----^0-----------------|---^2----------------|
|----^2-----------------|---^0----------------|
|----^3-----------------|---------------------|
|-----------------------|---------------------|


     Em
           ~~~
   a  E E  H.         E   E S S S S S S S S E   E
|------------------|--------------------------------|
|------------------|------0-3p0---------------------|
|------------------|--2b4-------2p0-2p0-------------|
|-12h14---14-------|--------------------2p0---------|
|------------------|--------------------------------|
|------------------|------------------------3b5-0---|
|
|     W              +W
|-----7------------|-(7)----------------------------|
|-----8------------|-(8)----------------------------|
|-----9------------|-(9)----------------------------|
|-----9------------|-(9)----------------------------|
|-----7------------|-(7)----------------------------|
|------------------|--------------------------------|
|
|     W              +W
|----^0------------|-(0)----------------------------|
|----^0------------|-(0)----------------------------|
|----^0------------|-(0)----------------------------|
|----^2------------|-(2)----------------------------|
|----^2------------|-(2)----------------------------|
|----^0------------|-(0)----------------------------|


  Em
                 ~~~~~~~~~~~                     ~~~~~~~~~~~
  +W                          +W
|---------------------------|-------------------------------|
|-15b17=====15-(15)---(15)r-|-15b17==(15)---15-(15)---(15)r-|
|---------------------------|-------------------------------|
|---------------------------|-------------------------------|
|---------------------------|-------------------------------|
|-(0)-----------------------|-(0)---------------------------|
|  Q      E  E  +Q.    +E      E      +Q     E  +Q.    +E
|
|  W                           E       H..
|--7------------------------|----------7--------------------|
|--8------------------------|-10-------8--------------------|
|--7------------------------|--7-------7--------------------|
|--9------------------------|--9-------9--------------------|
|--7------------------------|--7-------7--------------------|
|---------------------------|-------------------------------|
|
|  W                          +H                 H
|-^0------------------------|-(0)--------------^-0----------|
|-^0------------------------|-(0)--------------^-0----------|
|-^0------------------------|-(0)--------------^-0----------|
|-^2------------------------|-(2)--------------^-2----------|
|-^2------------------------|-(2)--------------^-2----------|
|-^0------------------------|-(0)--------------^-0----------|


  D
                         ~~~
   Q   H         E. S    W
|---------------------|-----------------|
|-----17b19=====17r17p|=15--------------|
|---------------------|-----------------|
|---------------------|-----------------|
|---------------------|-----------------|
|---------------------|-----------------|
|
|  W                     E  H..
|---------------------|-----------------|
|--7------------------|--8--7-----------|
|--7------------------|--7--7-----------|
|--7------------------|--7--7-----------|
|--5------------------|--5--5-----------|
|---------------------|-----------------|
|
|  W                    +H         H
|-^2------------------|-(2)-------^2----|
|-^3------------------|-(3)-------^3----|
|-^2------------------|-(2)-------^2----|
|-^0------------------|-(0)-------^0----|
|---------------------|-----------------|
|---------------------|-----------------|


    C                          D
     H.           E      E      E  Q.      E  Q.
|---17b19--------17b19==17-|---17r17------17p15-----|
|--------------------------|------------------------|
|--------------------------|------------------------|
|--------------------------|------------------------|
|--------------------------|------------------------|
|--------------------------|------------------------|
|
| a  Q.     Q.    Q          a  Q.     Q.        Q
|--------------------------|------------------------|
|-----------5-----8--------|------------------------|
|-4h=5---------------------|-5h=7------9---------7--|
|--------------------------|------------------------|
|--------------------------|------------------------|
|--------------------------|------------------------|
|
|    W                          W
|---^0---------------------|---^2-------------------|
|---^1---------------------|---^3-------------------|
|---^0---------------------|---^2-------------------|
|---^2---------------------|---^0-------------------|
|---^3---------------------|------------------------|
|--------------------------|------------------------|


  Em
   H.          S  S  E    E   E  E  E  E  E     E  E
|----------------------|------------------------------|
|-15b17=======15r15p13S|=12---------------------------|
|----------------------|-----14p12----12-14b16r14-12--|
|----------------------|-----------14-----------------|
|----------------------|------------------------------|
|----------------------|------------------------------|
|
|  W                     +W
|--7-------------------|-(7)--------------------------|
|--8-------------------|-(8)--------------------------|
|--9-------------------|-(9)--------------------------|
|--9-------------------|-(9)--------------------------|
|--7-------------------|-(7)--------------------------|
|----------------------|------------------------------|
|
|  W                     +W
|-^0-------------------|-(0)--------------------------|
|-^0-------------------|-(0)--------------------------|
|-^0-------------------|-(0)--------------------------|
|-^2-------------------|-(2)--------------------------|
|-^2-------------------|-(2)--------------------------|
|-^0-------------------|-(0)--------------------------|


 07:56
  G/E                          Bm7G/E
  Gtr IV
                                                  ~~~~~~~~~~~~
             |--3--|
   E E E  E  S  S  S  E  E E    E E     +E  +S  S Q.     +E
|----------------------------|--------------------------------|
|--------12-10h12S10---------|--------------------------------|
|--9---9-------------12-11-9-|--7-9b11==(9)r(9)p7-9------(9)\-|
|-14-9-----------------------|--------------------------------|
|----------------------------|--------------------------------|
|----------------------------|--------------------------------|
|  W
|
| Gtr II
|  W                            E H..
|--7-------------------------|----7---------------------------|
|--8-------------------------|-10-8---------------------------|
|--7-------------------------|--7-7---------------------------|
|--9-------------------------|--9-9---------------------------|
|--7-------------------------|--7-7---------------------------|
|----------------------------|--------------------------------|
|
| Gtr I
|  E E E  E  E        E  Q      E E      E   E    E  E Q
|--7------7--------------7---|--7------------7---------7------|
|----8-------8---------------|----8---------------8-----------|
|------9--------------9------|-----------9-----------9--------|
|----------------------------|--------------------------------|
|----------------------------|--------------------------------|
|----------------------------|--------------------------------|


  D                         Dsus4 D
                                              ~~~~~~~~~~~~
             |-3--|
  E E E a  E S  S S E E E   E     +E  +S  S E Q.     +E
|-------------------------|---------------------------------|
|-------8S10-8h10p8S7-----|---------------------------------|
|---------------------9-7-|-9b11==(9)r(9)p7h9---------------|
|-----7-------------------|-------------------7------(7)\---|
|---5---------------------|---------------------------------|
|-------------------------|---------------------------------|
|
| W                         E      H..
|-------------------------|---------------------------------|
|-7-----------------------|-8------7------------------------|
|-7-----------------------|-7------7------------------------|
|-7-----------------------|-7------7------------------------|
|-5-----------------------|-5------5------------------------|
|-------------------------|---------------------------------|
|
| E E E    E E      E Q     E      E   E    E E  E Q
|-5--------5----------5---|-5---------------5------5--------|
|---7--------7------------|--------7----------7-------------|
|-----7-------------7-----|------------7---------7----------|
|-------------------------|---------------------------------|
|-------------------------|---------------------------------|
|-------------------------|---------------------------------|


                                  ~~
     S  S  S  S S  S  S  S  E  e  Q
|---15p12----------------------------|
|---------13---------------------13--|
|------------12-9--------------------|
|-----------------10----------10-----|
|--------------------10--7S10--------|
|------------------------------------|
|
| a  Q.               Q.          Q
|------------------------------------|
|---------------------5-----------8--|
|-4S=5-------------------------------|
|------------------------------------|
|------------------------------------|
|------------------------------------|
|
|    E     E    E     E     E  E  Q
|----3----------------3-----------3--|
|----------5----------------5--------|
|---------------5--------------5-----|
|------------------------------------|
|------------------------------------|
|------------------------------------|


                                            Em
                                    ~~
                                                       |--3--|
     S  S  S  S  S  S  S S S  S  e  Q     a  Q    +E   S  S  S  E  E  E  E
|---17p14------------------------------|--------------------------19-19h20--|
|---------15-----------------------15--|-17S19---(19)-17h19p17-17-----------|
|------------14-11---------------------|------------------------------------|
|------------------12-----------12-----|------------------------------------|
|---------------------12S9-9S12--------|------------------------------------|
|--------------------------------------|------------------------------------|
|
| a  Q.                Q.           Q        W
|--------------------------------------|-----7------------------------------|
|--------------------------------------|-----8------------------------------|
|-5S=7-----------------9------------7--|-----9------------------------------|
|--------------------------------------|-----9------------------------------|
|--------------------------------------|-----7------------------------------|
|--------------------------------------|------------------------------------|
|
|    E     E     E     E   E     E  Q        E E   E   E        E  E  E  E
|----5-----------------5------------5--|-----7---------7--------------7-----|
|----------7---------------7-----------|-------8----------------8--------8--|
|----------------7---------------7-----|-----------9---------------9--------|
|--------------------------------------|------------------------------------|
|--------------------------------------|------------------------------------|
|--------------------------------------|------------------------------------|


                         G/E                      Bm7G/E
                  Gtr III
   \0.5
   ~~~~~
   W                      Q       +H.              E  E   E  E      +Q     Q
|-19-------------------|------------------------|-------------------------15---|
|-----------------15---|-15b17---(15)-----------|----12h=13-15b17==(15)--------|
|----------------------|------------------------|------------------------------|
|----------------------|------------------------|------------------------------|
|----------------------|------------------------|------------------------------|
|----------------------|------------------------|------------------------------|
|  H          Q    Q
|
| +W                      W                        E  H..
|-(7)------------------|--7---------------------|-----7------------------------|
|-(8)------------------|--8---------------------|-10--8------------------------|
|-(9)------------------|--7---------------------|--7--7------------------------|
|-(9)------------------|--9---------------------|--9--9------------------------|
|-(7)------------------|--7---------------------|--7--7------------------------|
|----------------------|------------------------|------------------------------|
|
|  E    E E E E E  E E    E    E   E  E E E E E    E  E   E  E       E  E  E E
|--7--------7------7---|--7-----------7-----7---|--7---------7-------------7---|
|-------8-----8------8-|-------8--------8-----8-|-----8--------------8-------8-|
|---------9-----9------|-----------9------9-----|---------9-------------9------|
|----------------------|------------------------|------------------------------|
|----------------------|------------------------|------------------------------|
|----------------------|------------------------|------------------------------|


  D                       DsusD
                           ~~~
   E  Q    E  E  Q    E    H.              a  E  E
|-----------------------|-----------------------15---|
|-15r15---15-15-13S==12-|-----------------15S17------|
|-----------------------|-14-------------------------|
|-----------------------|----------------------------|
|-----------------------|----------------------------|
|-----------------------|----------------------------|
|
|  W                       E  H..
|-----------------------|----------------------------|
|--7--------------------|--8--7----------------------|
|--7--------------------|--7--7----------------------|
|--7--------------------|--7--7----------------------|
|--5--------------------|--5--5----------------------|
|-----------------------|----------------------------|
|
|  E  E E  E  E  E Q       E  E   E E E E     Q
|--5-------5-------5----|--5--------5---------5------|
|-----7-------7---------|-----7-------7--------------|
|-------7--------7------|---------7-----7------------|
|-----------------------|----------------------------|
|-----------------------|----------------------------|
|-----------------------|----------------------------|


     H.                S  S  E      H.                S  S  E
|---17b19=============17r17p15-|---17b19=============17r17p15-|
|------------------------------|------------------------------|
|------------------------------|------------------------------|
|------------------------------|------------------------------|
|------------------------------|------------------------------|
|------------------------------|------------------------------|
|
| a  Q.        Q.      Q         a  Q.        Q.      Q
|------------------------------|------------------------------|
|--------------5-------8-------|------------------------------|
|-4S=5-------------------------|-5S=7---------9-------7-------|
|------------------------------|------------------------------|
|------------------------------|------------------------------|
|------------------------------|------------------------------|
|
|    E     E E E  E E  Q            E     E E E  E E  Q
|----3---------3-------3-------|----5---------5-------5-------|
|----------5------5------------|----------7------7------------|
|------------5------5----------|------------7------7----------|
|------------------------------|------------------------------|
|------------------------------|------------------------------|
|------------------------------|------------------------------|


  Em
  Gtr IV
   PMPM|   PM----------|    PM----------|
   E E  E  E E E E E     E  E E E E E E E
|-15-----------------|--------------------|
|------17------------|-(17)---------------|
|--------------------|--------------------|
|--------------------|--------------------|
|--------------------|--------------------|
|--0-0--0--0-0-0-0-0-|---0--0-0-0-0-0-0-0-|
|  Q    H.              +W
|
|  W                    +W
|--7-----------------|--(7)---------------|
|--8-----------------|--(8)---------------|
|--9-----------------|--(9)---------------|
|--9-----------------|--(9)---------------|
|--7-----------------|--(7)---------------|
|--------------------|--------------------|
|
|  E E  E  E E E E E     W
|--7-------7-----7---|-^12----------------|
|----8-------8-----8-|-^12----------------|
|-------9------9-----|-^12----------------|
|--------------------|--------------------|
|--------------------|--------------------|
|--------------------|--------------------|


 08:28
  Gtr IV
                             |-3-|
    Q  E E E E E E   +E  E E S S S E E E E
|------------------|-----------------------|
|------------------|-----------------------|
|------7-6---------|-----------------------|
|----------9-------|-------7-6h7p6S4-----6-|
|---9--------5-7-9-|-(9)-9-----------5-7---|
|------------------|-----------------------|
|
| Gtr V
|                            |-3-|
| a Q  E E E E E E   +E  E E S S S E E E E
|------------------|-----------------------|
|------7-5---------|-----------------------|
|----------7-------|-------6-4h6p4S2-----4-|
|-5h7--------4-5-7-|-(7)-7-----------4-5---|
|------------------|-----------------------|
|------------------|-----------------------|


                                 |-3-|
  +E  E E E E E E E   +E  E a  E S S S E E E E
|-------------------|----------------------------|
|-------5-4---------|----------------------------|
|-----------6-------|----------------------------|
|-(6)-6---------4-6-|-(6)-6-x/-9-7h9p7S6---------|
|-------------7-----|--------------------9-7-9---|
|-------------------|----------------------------|
|
|                                |-3-|
| +E  E E E E E E E   +E  E a  E S S S E E E E
|-------4-2---------|----------------------------|
|-----------5-------|----------------------------|
|-(4)-4-------1-2-4-|-(4)-4-x/-8-6h8p6S4---------|
|-------------------|--------------------7-6-7---|
|-------------------|----------------------------|
|-------------------|----------------------------|


                              |-3-|
  +E  E E E E E E E   +E  E E S S S E E E E
|-------------------|-----------------------|
|-------------------|-----------------------|
|-------7-6---------|-----------------------|
|-----------9-------|-------7-6h7p6S4-----6-|
|-(9)-9-------5-7-9-|-(9)-9-----------5-7---|
|-------------------|-----------------------|
|
|                             |-3-|
| +E  E E E E E E E   +E  E E S S S E E E E
|-------------------|-----------------------|
|-------7-5---------|-----------------------|
|-----------7-------|-------6-4h6p4S2-----4-|
|-(7)-7-------4-5-7-|-(7)-7-----------4-5---|
|-------------------|-----------------------|
|-------------------|-----------------------|


                                 |-3-|
  +E  E E E E E E E   +E  E a  E S S S E E E E
|-------------------|--------------------------|
|-------5-4---------|--------------------------|
|-----------6-------|--------------------------|
|-(6)-6---------4-6-|-(6)-6-x/-9-7h9p7S6-------|
|-------------7-----|--------------------9-7-5-|
|-------------------|--------------------------|
|
|                                |-3-|
| +E  E E E E E E E   +E  E a  E S S S E E E E
|-------4-3---------|--------------------------|
|-----------5-------|--------------------------|
|-(4)-4-------1-2-4-|-(4)-4-x/-8-6h8p6S4-------|
|-------------------|--------------------7-6-4-|
|-------------------|--------------------------|
|-------------------|--------------------------|


                                            PM--------------------------
    Q  S E. Q  Q    Q  S E. Q  Q       Q.   S  S  S  S S S  S  S  S  S
||----------------|---------------|------------------------------------|
||o---------------|---------------|------------------------------------|
||----------------|---------------|------------------------------------|
||----------------|---------------|-------------------------------7--7-|
||o---------------|---------------|---10----------7--7-9-9-10-10-------|
||--0--5S7--5--7--|-0--5S7--5--7--|----8----8-10-----------------------|
|
|                                           PM--------------------------
|   Q  S E. Q  Q    Q  S E. Q  Q    a  Q.   S  S  S  S S S  S  S  S  S
||----------------|---------------|------------------------------------|
||o---------------|---------------|------------------------------------|
||----------------|---------------|------------------------------------|
||----------------|---------------|--------------------7-7--9--9-10-10-|
||o----3S5--3--5--|----3S5--3--5--|-5S=7----7--9-10-10-----------------|
||--0-------------|-0-------------|------------------------------------|


 --------------------------------------|
  S S  S  S  S  S S S  S  S S S S S  S  S
|------------------------------------------||
|------------------------------------7--7-o||
|---------------------------7-7-9-9--------||
|------------7--7-9-9-10-10----------------||
|-9-9-10-10-------------------------------o||
|------------------------------------------||
|
|--------------------------------------|
| S S  S  S  S  S S S  S  S S S S S  S  S
|------------------------------------------||
|---------------------------7-7-8-8-10-10-o||
|-----------------7-7--9--9----------------||
|-7-7--9--9-10-10--------------------------||
|-----------------------------------------o||
|------------------------------------------||


  E5         B5
  Gtrs IV, V
  W          W          a H    Q.   E   E E E E E E E E
|----------|----------|---------------|-----------------|
|----------|----------|---------------|-----------------|
|----------|-4--------|---------------|-----------------|
|-2--------|-4--------|-0h2----4----4-|-----------------|
|-2--------|-2--------|---------------|-----------0-----|
|-0--------|----------|---------------|-3-3-3-3-3---3-2-|


  E5         B5
  W          W            a W            a W
|----------|------------|--------------|--------------------|
|----------|------------|--------------|--------------------|
|----------|-4----------|--------------|--------------------|
|-2--------|-4----------|-0h2----------|-2h4----------------|
|-2--------|-2----------|--------------|--------------------|
|-0--------|------------|--------------|--------------------|
|
| Gtr VI
| W          H    Q  Q      H.      Q      H     Q    Q
|----------|------------|--------------|--------------------|
|----------|------0-----|--------------|--------------------|
|----------|---------2--|---0----------|---0----(0)--(0)----|
|----------|------------|-----------4--|---2----(2)--(2)----|
|----------|------------|--------------|---------2----0-----|
|----------|------------|--------------|--------------------|


             H=H
  Em/G
  >
  W          +W           +W           +H.      E S S
|----------|------------|------------|----------------|
|----------|------------|------------|----------------|
|----------|------------|------------|------------7-7-|
|-2--------|-(2)--------|-(2)--------|-(2)--------9-9-|
|----------|------------|------------|----------------|
|----------|------------|------------|----------------|
|
| >
| W          +W           +W           +W
|----------|------------|------------|----------------|
|----------|------------|------------|----------------|
|-0--------|-(0)--------|-(0)--------|-(0)------------|
|-2--------|-(2)--------|-(2)--------|-(2)------------|
|----------|------------|------------|----------------|
|-3--------|-(3)--------|-(3)--------|-(3)------------|


   09:23
    Q=130
    Gtr IV
    S S S S S S  S  S S  S S  S Q     S S S S  Q  S S S S S S S S
||--------------------7---------7--|------------------------------|
||o-8-8-7-7-8-8-10-10---10-8-10----|-10-8-7-8-10--8-7---7-8-8-----|
||---------------------------------|------------------9-------7-7-|
||---------------------------------|------------------------------|
||o--------------------------------|------------------------------|
||---------------------------------|------------------------------|
|
|   Gtr V
|   S S S S S S  S  S S  S S  S Q     S S S S  Q  S S S S S S S S
||---------------------------------|------------------------------|
||o--------------7--7-8--7----7-8--|--7--------7------------------|
||--9-9-8-8-9-9------------9-------|----9-8-9-----9-8-6-8-9-9-----|
||---------------------------------|--------------------------9-9-|
||o--------------------------------|------------------------------|
||---------------------------------|------------------------------|


  S S S S S S  S  S S  S S S  S  S S S
|-------------------7------7-10-10-7-7-|
|-8-8-7-7-8-8-10-10---10-8-------------|
|--------------------------------------|
|--------------------------------------|
|--------------------------------------|
|--------------------------------------|
|
| S S S S S S  S  S S  S S S  S  S S S
|-----------------------------7--7-----|
|--------------7--7-8--7---8-------8-8-|
|-9-9-8-8-9-9------------9-------------|
|--------------------------------------|
|--------------------------------------|
|--------------------------------------|


 1.                                2.
   S  S  S  S S S  S  S Q.   e      S  S  S  S S S  S  S H
|--8--8--8--8-7-7---------------||--8--8--8--8-7-7------------|
|-----------------10-10-8------o||-----------------10-10-8----|
|----------------------------7--||----------------------------|
|-------------------------------||----------------------------|
|------------------------------o||----------------------------|
|-------------------------------||----------------------------|
|
|  S  S  S  S S S  S  S Q.   e      S  S  S  S S S  S  S H
|-------------------------------||----------------------------|
|-10-10-10-10-8-8--7--7--------o||-10-10-10-10-8-8--7--7------|
|-----------------------9-------||-----------------------9----|
|----------------------------9--||----------------------------|
|------------------------------o||----------------------------|
|-------------------------------||----------------------------|


   PM--------------------------------------------
   S  S  S  S  S  S  S  S  S  S  S  S  S  S S S
|-12-12-12-12-12-12--8--8-10-10--8--8-10-10-7-7-|
|-----------------------------------------------|
|-----------------------------------------------|
|-----------------------------------------------|
|-----------------------------------------------|
|-----------------------------------------------|
|
|  PM--------------------------------------------
|  S  S  S  S  S  S  S  S  S  S  S  S  S  S S S
|--8--8--8--8--8--8--------7--7--------7--7-----|
|-------------------10-10-------10-10-------8-8-|
|-----------------------------------------------|
|-----------------------------------------------|
|-----------------------------------------------|
|-----------------------------------------------|


 ------------------------------|
   S  S  S  S S S  S  S S S  S  S Q
|--8--8--8--8-7-7-----------------7--|
|-----------------10-10-8-8-10-10----|
|------------------------------------|
|------------------------------------|
|------------------------------------|
|------------------------------------|
|
|------------------------------|
|  S  S  S  S S S  S  S S S  S  S Q
|------------------------------------|
|-10-10-10-10-8-8--7--7------7--7-8--|
|-----------------------9-9----------|
|------------------------------------|
|------------------------------------|
|------------------------------------|


   PM------------------------------------|
   S  S  S  S  S  S  S  S  S  S  S  S  S  S e
|-12-12-12-12-12-12--8--8-10-10--8--8-10-10-7-|
|---------------------------------------------|
|---------------------------------------------|
|---------------------------------------------|
|---------------------------------------------|
|---------------------------------------------|
|
|  PM------------------------------------|
|  S  S  S  S  S  S  S  S  S  S  S  S  S  S e
|--8--8--8--8--8--8--------7--7--------7--7---|
|-------------------10-10-------10-10-------8-|
|---------------------------------------------|
|---------------------------------------------|
|---------------------------------------------|
|---------------------------------------------|


 2/4                     4/4
                           ~~~
   S  S  S S  S  S S  S    W
|-12p11p10p8-11p10p8----|-----------------|
|--------------------10-|-12--------------|
|-----------------------|-----------------|
|-----------------------|-----------------|
|-----------------------|-----------------|
|-----------------------|-----------------|
|
|                          ~~~
|  S  S  S S  S  S S  S    H.      +Q
|-----------------------|-----------------|
|-12p11p10p8-11p10p8----|-----------------|
|---------------------8-|--9-------(9)/---|
|-----------------------|-----------------|
|-----------------------|-----------------|
|-----------------------|-----------------|


             09:48
  E5    D5
 2/4         4/4
              ~~~~~~~~       ~~~~~~~~
   E  E E E   Q  +S   S S  S Q  +S   S S  S
|-----------|-7--(7)h=8p7----7--(7)h=8p7----|
|-----------|-------------10-------------10-|
|--9----7---|-------------------------------|
|--9----7---|-------------------------------|
|--7----5---|-------------------------------|
|-----------|-------------------------------|
|
|             ~~~~~~~~       ~~~~~~~~
| +E  E Q     Q  +S   S S  S Q  +S   S S  S
|-----------|-------------------------------|
|-----------|-8--(8)h10p8p=7-8--(8)h10p8p=7-|
|-(9)-------|-------------------------------|
|-----------|-------------------------------|
|-----------|-------------------------------|
|-----------|-------------------------------|


  S  S S S  S S S  S S S  S S S  S S  S
|-7-------------------------------------|
|---10-8p7-10-8-7----8p7------7---------|
|------------------9------9-7----9-7----|
|------------------------------------10-|
|---------------------------------------|
|---------------------------------------|
|
| S  S S S  S S S  S S S  S S S  S S  S
|---------------------------------------|
|-8--7------7---------------------------|
|------9p7----9-7----9p7------7---------|
|-----------------10-----10-9---10-9--7-|
|---------------------------------------|
|---------------------------------------|


   ~~~~~~~~            ~~~~~~~~
   Q   +E   T  T  T T  Q   +E   T  T  T T
|-----------------------------------------|
|-----------------------------------------|
|-----------------------------------------|
|--9---(9)--9h10p=9p7--9---(9)--9h10p=9p7-|
|-----------------------------------------|
|-----------------------------------------|
|
|  ~~~~~~~~            ~~~~~~~~
|  Q   +E   T  T  T T  Q   +E   T  T  T T
|-----------------------------------------|
|-----------------------------------------|
|-----------------------------------------|
|--------------7-------------------7------|
|-10--(10)-10----10p8-10--(10)-10----10p8-|
|-----------------------------------------|


   S  S S  S  S S S  S S S  S S S  S  S  S
|-------------------------------7----10--8-|
|-----------------7----8-7-10-8---10-------|
|-------7-----9-7----9---------------------|
|-10--9---10-------------------------------|
|------------------------------------------|
|------------------------------------------|
|
|  S  S S  S  S S S  S S S  S S S  S  S  S
|-------------------------------------7----|
|---------------------------7---8--7----10-|
|-----------------7----9-7----9------------|
|--7----9--7-10-9---10---------------------|
|----10------------------------------------|
|------------------------------------------|


  ~~~~~~~          ~~~~~~~
  Q  +E  T  T T  T Q  +E  T  T T  T   S  S S S  S S S  S S S  S S S  S S  S
|-7--(7)-7h=8p7----7--(7)-7h=8p7----|-7-------------------------------------|
|---------------10---------------10-|---10-8p7-10-8-7----8p7------7---------|
|-----------------------------------|------------------9------9-7----9-7----|
|-----------------------------------|------------------------------------10-|
|-----------------------------------|---------------------------------------|
|-----------------------------------|---------------------------------------|
|
| ~~~~~~~          ~~~~~~~
| Q  +E  T  T T  T Q  +E  T  T T  T   S  S S S  S S S  S S S  S S S  S S  S
|-----------------------------------|---------------------------------------|
|-8--(8)-8h10p8p=7-8--(8)-8h10p8p=7-|-8--7------7---------------------------|
|-----------------------------------|------9p7----9-7----9p7------7---------|
|-----------------------------------|-----------------10-----10-9---10-9--7-|
|-----------------------------------|---------------------------------------|
|-----------------------------------|---------------------------------------|


   ~~~~~~~~            ~~~~~~~~
   Q   +E   T  T  T T  Q   +E   T  T  T T
|-----------------------------------------|
|-----------------------------------------|
|-----------------------------------------|
|--9---(9)--9h10p=9p7--9---(9)--9h10p=9p7-|
|-----------------------------------------|
|-----------------------------------------|
|
|  ~~~~~~~~            ~~~~~~~~
|  Q   +E   T  T  T T  Q   +E   T  T  T T
|-----------------------------------------|
|-----------------------------------------|
|-----------------------------------------|
|--------------7-------------------7------|
|-10--(10)-10----10p8-10--(10)-10----10p8-|
|-----------------------------------------|


   S  S S  S  S S S  S S S  S S S  S  S  S
|-------------------------------7----10--8-|
|-----------------7----8-7-10-8---10-------|
|-------7-----9-7----9---------------------|
|-10--9---10-------------------------------|
|------------------------------------------|
|------------------------------------------|
|
|  S  S S  S  S S S  S S S  S S S  S  S  S
|-------------------------------------7----|
|---------------------------7---8--7----10-|
|-----------------7----9-7----9------------|
|--7----9--7-10-9---10---------------------|
|----10------------------------------------|
|------------------------------------------|


  ~~~~~~~          ~~~~~~~
  Q  +E  T  T T  T Q  +E  T  T T  T   S  S S  S S  S S  S S  S S  S S  S S  S
|-7--(7)-7h=8p7----7--(7)-7h=8p7----|-7h=8p7----7h=8p7----7h=8p7----7h=8p7----|
|---------------10---------------10-|--------10--------10--------10--------10-|
|-----------------------------------|-----------------------------------------|
|-----------------------------------|-----------------------------------------|
|-----------------------------------|-----------------------------------------|
|-----------------------------------|-----------------------------------------|
|
| ~~~~~~~          ~~~~~~~
| Q  +E  T  T T  T Q  +E  T  T T  T   S  S S  S S  S S  S S  S S  S S  S S  S
|-----------------------------------|-----------------------------------------|
|-8--(8)-8h10p8p=7-8--(8)-8h10p8p=7-|-8h10p8p=7-8h10p8p=7-8h10p8p=7-8h10p8p=7-|
|-----------------------------------|-----------------------------------------|
|-----------------------------------|-----------------------------------------|
|-----------------------------------|-----------------------------------------|
|-----------------------------------|-----------------------------------------|


 10:06
                                                        ~~~~~
         |---3---|          |---3---|        |---3---|
   E     S  S    S  E       S  S    S  E     S  S    S  Q
|-------13-----------------13---------------13---------------------|
|-15b17----15p==12-15b17------15p==12-15b17----15p==12-15b17-------|
|------------------------------------------------------------------|
|------------------------------------------------------------------|
|------------------------------------------------------------------|
|------------------------------------------------------------------|
|
|  PM---------------------------------------------------------------
|  E     S    S     S    S  S    S     E     S    S     S    S S S
|------------------------------------------------------------------|
|------------------------------------------------------------------|
|------------------------------------------------------------------|
|------------------------------------------------------------------|
|------------------------------------------------------------------|
|--0-----0----0-----0----0--0----0-----0-----0----0-----0----0-0-0-|


                                           C5                D5
   |-------6--------|  |--------6--------|  |------6-------|  |------6-------|
   S  S  S  S  S    S  S  S   S  S  S    S  S  S  S  S  S  S  S  S  S  S  S  S
|-12-------12h15p==14-12--------12-----------------------------------------------|
|----15p12---------------15--------15S==14h15p14S12h14p12----12h15p14p12---------|
|---------------------------------------------------------15-------------15p12---|
|--------------------------------------------------------------------------------|
|--------------------------------------------------------------------------------|
|--------------------------------------------------------------------------------|
|
|-------------------------------------|
|  E        S    S     S    S    S    S     Q                 Q
|--------------------------------------------------------------------------------|
|--------------------------------------------------------------------------------|
|-------------------------------------------5-----------------7------------------|
|-------------------------------------------5-----------------7------------------|
|-------------------------------------------3-----------------5------------------|
|--0--------0----0-----0----0----0----0------------------------------------------|


                                             ~~~~~~~~~~~~
   |-------6--------|  |--------6---------|
   S  S  S  S  S    S  S  S    S  S  S    S  Q         Q
|--------------------------------------------------------------|
|-15p14p12-14p12---------12h==15p14p12-------------------------|
|------------------15-12-----------------12-14b16-----12-------|
|--------------------------------------------------------------|
|--------------------------------------------------------------|
|--------------------------------------------------------------|
|
|  PM-----------------------------------------------------------
|  E        S    S     S    S     S    S     E    S S  S S S S
|--------------------------------------------------------------|
|--------------------------------------------------------------|
|--------------------------------------------------------------|
|--------------------------------------------------------------|
|--------------------------------------------------------------|
|--0--------0----0-----0----0-----0----0-----0----0-0--0-0-0-0-|


                             C5        D5
         \2/    \2/    \2/    \2/  \2/ \2/  \2/
   +E    E      E      E      E    E   E    E
|--------------------------------------------------|
|------------------------------------------10---10-|
|-(12)--12-----11-----11-----12---11---9---14------|
|--------------------------------------------------|
|--------------------------------------------------|
|--------------------------------------------------|
|   H..                                     S    S
|
|--------------------------|
|   E    S   S  S   S  S   S  Q        Q
|--------------------------------------------------|
|--------------------------------------------------|
|-----------------------------5--------7-----------|
|-----------------------------5--------7-----------|
|-----------------------------3--------5-----------|
|---0----0---0--0---0--0---0-----------------------|


  ~~~~~~~~
  E +H..
|---------------------------------|
|---------------------------------|
|-7-(7)b9-------------------------|
|---------------------------------|
|---------------------------------|
|---------------------------------|
|
| PM-------------------------------
| E  S    S S S S S E S S S S S S
|---------------------------------|
|---------------------------------|
|---------------------------------|
|---------------------------------|
|-3--3----3-3-3-3-3-3-3-3-3-3-3-3-|
|---------------------------------|


                               E5                D5
               |---3---|        |------6-------|        |--3--|
   S  S  S  S  S  S    S  S  S  S  S  S  S  S  S  S  S  S  S  S
|-16p14p12-13-12------------------------------------------------|
|----------------15---12-15p13-15p13p12-13p12----12-------------|
|---------------------------------------------14----14-12h14p12-|
|---------------------------------------------------------------|
|---------------------------------------------------------------|
|---------------------------------------------------------------|
|
|---------------------------|
|  E     S  S  S    S     S  S  Q                 Q
|---------------------------------------------------------------|
|---------------------------------------------------------------|
|-------------------------------9-----------------7-------------|
|-------------------------------9-----------------7-------------|
|--3-----3--3--3----3-----3--3--7-----------------5-------------|
|---------------------------------------------------------------|


              |--3--|         |--3--|
   S  S  S S  S S   S S S S S S S   S S S S S
|---------------------------------------------|
|---------------------------------------------|
|-11h12p11S9-11p9S==7-9-7-5h7-4h5p==4---4-----|
|-------------------------------------7---7-5-|
|---------------------------------------------|
|---------------------------------------------|
|
|  PM------------------------------------------
|  E     S S  S   S   S S E   S   S   S S S S
|---------------------------------------------|
|---------------------------------------------|
|---------------------------------------------|
|---------------------------------------------|
|--3-----3-3--3---3---3-3-3---3---3---3-3-3-3-|
|---------------------------------------------|


                         E5
                          \2
       |--3--|
  S  S S S   S  E    S S +H
|----------------------------------|
|------------------------------0-0-|
|----------------------------------|
|-7p=4-5-4p==2S[4]---2-------------|
|----------------------2-(2)-------|
|----------------------------------|
| H..                          S S
|
|----------------------|
| E    S   S    S  S S S  H
|----------------------------------|
|----------------------------------|
|-------------------------9--------|
|-------------------------9--------|
|-3----3---3----3--3-3-3--7--------|
|----------------------------------|


 10:20
  |-----6-----| |------6------| |-----6-----|  |------6------|
  S S S S S   S S S   S S S   S S S S S S   S  S S   S S S   S
|--------------------------------------------------------------|
|-5-0-0-7-0---0-8-0---0-5-0---0-7-0-0-8-0---0-10-0---0-7-0---0-|
|--------------------------------------------------------------|
|--------------------------------------------------------------|
|--------------------------------------------------------------|
|--------------------------------------------------------------|
|
| PM------------------------------------------------------------
| E     S   S   S   S   S   S   E     S   S    S   S   S   S
|--------------------------------------------------------------|
|--------------------------------------------------------------|
|--------------------------------------------------------------|
|--------------------------------------------------------------|
|--------------------------------------------------------------|
|-0-----0---0---0---0---0---0---0-----0---0----0---0---0---0---|


                                  C5          D5
  |-----6------|  |------6------|
  S S S  S S   S  S S   S S S   S  S  S  S  S  Q
|---------------------------------------------------|
|-8-0-0-10-0---0-12-0---0-8-0---0-11S12S13S12-12----|
|----------------------------------x--x--x--x--x----|
|----------------------------------8S=9S10S=9--9----|
|---------------------------------------------------|
|---------------------------------------------------|
|
|-----------------------------|
| E      S   S    S   S   S   S    Q           Q
|---------------------------------------------------|
|---------------------------------------------------|
|----------------------------------5-----------7----|
|----------------------------------5-----------7----|
|----------------------------------3-----------5----|
|-0------0---0----0---0---0---0---------------------|


    \2/  \2/       \2/  /2\                     \2
    S    E.        S    E.       E     S  S  S  E.
|------------------------------------------------------|
|------------------------------------------------------|
|-/12---14b18r====14---12-------14b18r14p12h14p12------|
|------------------------------------------------------|
|------------------------------------------------------|
|------------------------------------------------------|
|
|   PM--------------------------------------------------
|   E         S S  S    S   S S  E     S  S  S  S  S S
|------------------------------------------------------|
|------------------------------------------------------|
|------------------------------------------------------|
|------------------------------------------------------|
|------------------------------------------------------|
|---0---------0-0--0----0---0-0--0-----0--0--0--0--0-0-|


                      C5    D5
  E  E    Q            +Q.     +E
|--------15b17========(15)r===(15)-|
|---12-----------------------------|
|----------------------------------|
|----------------------------------|
|----------------------------------|
|----------------------------------|
|
|-------------------|
| E  S S  S     S S S   Q   Q
|----------------------------------|
|----------------------------------|
|-----------------------5---7------|
|-----------------------5---7------|
|-----------------------3---5------|
|-0--0-0--0-----0-0-0--------------|


   S  S  S  S  S  S  S  S  S  S  S  S  S  S  S  S
|-14p12----17p12----15p12----14p12----12----------|
|-------12-------12-------12-------12----12-15p12-|
|-------------------------------------------------|
|-------------------------------------------------|
|-------------------------------------------------|
|-------------------------------------------------|
|
|  PM----------------------------------------------
|  E     S  S  S  S  S  S  E     S  S  S  S  S  S
|-------------------------------------------------|
|-------------------------------------------------|
|-------------------------------------------------|
|-------------------------------------------------|
|--3-----3--3--3--3--3--3--3-----3--3--3--3--3--3-|
|-------------------------------------------------|


                          E5          D5
   S  S  S  S  S  S  S  S  S  S  S  S  S  S  S  S
|-15p12----17p12----15p12----14p12----12----------|
|-------12-------12-------12-------12----12-15p12-|
|-------------------------------------------------|
|-------------------------------------------------|
|-------------------------------------------------|
|-------------------------------------------------|
|
|----------------------|
|  E     S  S  S  S  S  S  Q           Q
|-------------------------------------------------|
|-------------------------------------------------|
|--------------------------9-----------7----------|
|--------------------------9-----------7----------|
|--3-----3--3--3--3--3--3--7-----------5----------|
|-------------------------------------------------|


   E      +Q.            Q.          +E
|-------------------------------------------|
|-15b17==(15)-----------15----------(15)r---|
|-------------------------------------------|
|-------------------------------------------|
|-------------------------------------------|
|-------------------------------------------|
|
|  PM----------------------------------------
|  E       S  S S S S S  E  S S S S   S   S
|-------------------------------------------|
|-------------------------------------------|
|-------------------------------------------|
|-------------------------------------------|
|--3-------3--3-3-3-3-3--3--3-3-3-3---3---3-|
|-------------------------------------------|


                                  E5          D5
   |-------6--------|
   S  S  S  S  S    S  S  S  S  S  S  S  S  S  S  S  S  S
|-12-15p12-------------------------------------------------||
|----------12-13p==12--------------------------------------||
|---------------------14-12--------------------------------||
|---------------------------15-14-12-----------------------||
|------------------------------------15-14-12-10-----------||
|------------------------------------------------13-12-10--||
|
|------------------------------|
|  E        S    S     S  S  S  S  Q           Q
|----------------------------------------------------------||
|----------------------------------------------------------||
|----------------------------------9-----------7-----------||
|----------------------------------9-----------7-----------||
|--3--------3----3-----3--3--3--3--7-----------5-----------||
|----------------------------------------------------------||


 10:35
   ~~              ~~
   Q   S  S  S  S  Q   S  S  S  S
|-12--12h13p12----12--12h13p12----|
|--------------15--------------15-|
|------x/-------------------------|
|---------------------------------|
|---------------------------------|
|--8------------------------------|
|  Q   Q           H
|
|  ~~              ~~
|  Q   S  S  S  S  Q   S  S  S  S
|---------------------------------|
|-13--13h15p13p12-13--13h15p13p12-|
|---------------------------------|
|---------------------------------|
|---------------------------------|
|---------------------------------|


   S  S  S  S  S  S  S  S  S  S  S  S  S  S  S  S
|-12----------------------------------------------|
|----15-13p12-15-13-12----13p12-------12----------|
|----------------------14-------14-12----14-12----|
|----------------------------------------------15-|
|-------------------------------------------------|
|-------------------------------------------------|
|
|  S  S  S  S  S  S  S  S  S  S  S  S  S  S  S  S
|-------------------------------------------------|
|-13-12-------12----------------------------------|
|-------14p12----14-12----14p12-------12----------|
|----------------------15-------15-14----15-14-12-|
|-------------------------------------------------|
|-------------------------------------------------|


   ~~~~~~~~             ~~~~~~~~
   Q   +E   T  T  T  T  Q   +E   T  T  T  T
|-------------------------------------------|
|-------------------------------------------|
|-------------------------------------------|
|-14--(14)-14h15p14p12-14--(14)-14h15p14p12-|
|-------------------------------------------|
|-------------------------------------------|
|
|  ~~                   ~~~~~~~~
|  Q   +E   T  T  T  T  Q   +E   T  T  T  T
|-------------------------------------------|
|-------------------------------------------|
|-------------------------------------------|
|-------------12-------------------12-------|
|-15--(15)-15----15p14-15--(15)-15----15p14-|
|-------------------------------------------|


   S  S  S  S  S  S  S  S  S  S  S  S  S  S  S  S
|-------------------------------------12----15-13--|
|-------------------12----13-12-15-13----15--------|
|-------12----14-12----14--------------------------|
|-15-14----15--------------------------------------|
|--------------------------------------------------|
|--------------------------------------------------|
|
|  S  S  S  S  S  S  S  S  S  S  S  S  S  S  S  S
|-------------------------------------------12-----|
|-------------------------------12----13-12----15--|
|-------------------12----14-12----14--------------|
|-12----14-12-15-14----15--------------------------|
|----15--------------------------------------------|
|--------------------------------------------------|


   ~~~~~~~~             ~~~~~~~~
   Q   +E   T  T  T  T  Q   +E   T  T  T  T
|-12--(12)-12h13p12----12--(12)-12h13p12----|
|-------------------15-------------------15-|
|-------------------------------------------|
|-------------------------------------------|
|-------------------------------------------|
|-------------------------------------------|
|
|  ~~~~~~~~             ~~~~~~~~
|  Q   +E   T  T  T  T  Q   +E   T  T  T  T
|-------------------------------------------|
|-13--(13)-13h15p13p12-13--(13)-13h15p13p12-|
|-------------------------------------------|
|-------------------------------------------|
|-------------------------------------------|
|-------------------------------------------|


   S  S  S  S  S  S  S  S  S  S  S  S  S  S  S  S
|-12-----------------------------------------------|
|----15-13p12-15-13-12----13p12-------12-----------|
|----------------------14-------14-12----14-12-----|
|----------------------------------------------15--|
|--------------------------------------------------|
|--------------------------------------------------|
|
|  S  S  S  S  S  S  S  S  S  S  S  S  S  S  S  S
|--------------------------------------------------|
|-13-12-------12-----------------------------------|
|-------14p12----14-12----14p12-------12-----------|
|----------------------15-------15-14----15-14-12--|
|--------------------------------------------------|
|--------------------------------------------------|


   ~~~~~~~~             ~~~~~~~~
   Q   +E   T  T  T  T  Q   +E   T  T  T  T
|-------------------------------------------|
|-------------------------------------------|
|-------------------------------------------|
|-14--(14)-14h15p14p12-14--(14)-14h15p14p12-|
|-------------------------------------------|
|-------------------------------------------|
|
|  ~~                   ~~~~~~~~
|  Q   +E   T  T  T  T  Q   +E   T  T  T  T
|-------------------------------------------|
|-------------------------------------------|
|-------------------------------------------|
|-------------12-------------------12-------|
|-15--(15)-15----15p14-15--(15)-15----15p14-|
|-------------------------------------------|


   S  S  S  S  S  S  S  S  S  S  S  S  S  S  S  S
|-------------------------------------12----15-13--|
|-------------------12----13-12-15-13----15--------|
|-------12----14-12----14--------------------------|
|-15-14----15--------------------------------------|
|--------------------------------------------------|
|--------------------------------------------------|
|
|  S  S  S  S  S  S  S  S  S  S  S  S  S  S  S  S
|-------------------------------------------12-----|
|-------------------------------12----13-12----15--|
|-------------------12----14-12----14--------------|
|-12----14-12-15-14----15--------------------------|
|----15--------------------------------------------|
|--------------------------------------------------|


   ~~~~~~~~             ~~~~~~~~
   Q   +E   T  T  T  T  Q   +E   T  T  T  T
|-12--(12)-12h13p12----12--(12)-12h13p12----|
|-------------------15-------------------15-|
|-------------------------------------------|
|-------------------------------------------|
|-------------------------------------------|
|-------------------------------------------|
|
|  ~~~~~~~~             ~~~~~~~~
|  Q   +E   T  T  T  T  Q   +E   T  T  T  T
|-------------------------------------------|
|-13--(13)-13h15p13p12-13--(13)-13h15p13p12-|
|-------------------------------------------|
|-------------------------------------------|
|-------------------------------------------|
|-------------------------------------------|


   S  S  S  S  S  S  S  S  S  S  S  S  S  S  S  S
|-12h13p12----12h13p12----12h13p12----12h13p12-----|
|----------15----------15----------15----------15--|
|--------------------------------------------------|
|--------------------------------------------------|
|--------------------------------------------------|
|--------------------------------------------------|
|
|  S  S  S  S  S  S  S  S  S  S  S  S  S  S  S  S
|--------------------------------------------------|
|-13h15p13p12-13h15p13p12-13h15p13p12-13h15p13p12--|
|--------------------------------------------------|
|--------------------------------------------------|
|--------------------------------------------------|
|--------------------------------------------------|


   S  S  S  S  S  S  S  S  S  S  S  S  S  S  S  S
|-12h13p12----12h13p12----12h13p12----12h13p12----|
|----------15----------15----------15----------15-|
|-------------------------------------------------|
|-------------------------------------------------|
|-------------------------------------------------|
|-------------------------------------------------|
|
|  S  S  S  S  S  S  S  S  S  S  S  S  S  S  S  S
|-------------------------------------------------|
|-13h15p13p12-13h15p13p12-13h15p13p12-13h15p13p12-|
|-------------------------------------------------|
|-------------------------------------------------|
|-------------------------------------------------|
|-------------------------------------------------|


   S  S  S  S  S  S  S  S  S  S  S  S  S  S  S  S
|-12h13p12----12h13p12-15-12h13p12----12h13p12----|
|----------15----------------------15----------15-|
|-------------------------------------------------|
|-------------------------------------------------|
|-------------------------------------------------|
|-------------------------------------------------|
|
|  S  S  S  S  S  S  S  S  S  S  S  S  S  S  S  S
|-------------------------------------------------|
|-13h15p13p12-13h15p13p12-13h15p13p12-13h15p13p12-|
|-------------------------------------------------|
|-------------------------------------------------|
|-------------------------------------------------|
|-------------------------------------------------|


 10:57
  H                H
|-----------------10b12---------------|
|-------------------------------------|
|-9-----------------------------------|
|-------------------------------------|
|-------------------------------------|
|-------------------------------------|
|
| PM-----------------------------------
| S S S S S S S S  S    S S S S S S S
|-------------------------------------|
|-------------------------------------|
|-------------------------------------|
|-------------------------------------|
|-0-0-0-0-0-0-0-0--0----0-0-0-0-0-----|
|---------------------------------0-0-|


   H.                       Q         H               Q        Q
|-10------------------------8-------|-7---------------8-------10-------|
|-----------------------------------|----------------------------------|
|-----------------------------------|----------------------------------|
|-----------------------------------|----------------------------------|
|-----------------------------------|----------------------------------|
|-----------------------------------|----------------------------------|
|
|--------------------------------------------------------------------|
|  S  S S S S S S S S S S S S S S S   S S S S S S S S S S S S  S S S S
|-----------------------------------|----------------------------------|
|-----------------------------------|----------------------------------|
|-----------------------------------|----------------------------------|
|-----------------------------------|----------------------------------|
|---------------------------0-0-0-0-|----------------------------------|
|--1--1-1-1-1-1-1-1-1-1-3-3---------|-3-3-3-3-3-3-3-3-3-3-3-3--1-1-1-1-|


   Q.              +E    Q       Q
|-10b12r==========(10)---7---------------|
|--------------------------------8-------|
|----------------------------------------|
|----------------------------------------|
|----------------------------------------|
|----------------------------------------|
|
|  PM-------------------------------------
|  S    S S S S S   S  S S S S S S S S S
|----------------------------------------|
|----------------------------------------|
|----------------------------------------|
|----------------------------------------|
|--3----3-3-3-3-3---3--3-3-3-3-3-3-3-3-3-|
|----------------------------------------|


         ~~~
  E     +Q.           Q        Q         H.                       Q
|-7b8---(7)-----------7----------------|----------------------------------|
|-----------------------------10-------|-8--------------------------------|
|--------------------------------------|--------------------------9-------|
|--------------------------------------|----------------------------------|
|--------------------------------------|----------------------------------|
|--------------------------------------|----------------------------------|
|
|-----------------------------------------------------------------------|
| S   S  S  S S S S S S S S S  S S S S   S  S S S S S S S S S S S S S S S
|--------------------------------------|----------------------------------|
|--------------------------------------|----------------------------------|
|--------------------------------------|----------------------------------|
|--------------------------------------|----------------------------------|
|--------------------------------------|-3--3-3-3-3-3-3-3-3-3-3-2-0-0-----|
|-1---1--1--1-1-1-1-1-1-1-1-1--1-1-1-1-|------------------------------3-3-|


                                         \1
  Q          +Q        Q       Q         W
|--------------------------------------|-------|
|--------------------------------------|-------|
|-9b10-------(9)-------9-------7-------|-5-----|
|--------------------------------------|-------|
|--------------------------------------|-------|
|--------------------------------------|-------|
|
| PM---------------------------------|
| S    S S S  S  S S S S S S S S S S S   W
|--------------------------------------|-------|
|--------------------------------------|-------|
|--------------------------------------|-2-----|
|--------------------------------------|-2-----|
|--------------------------------------|-0-----|
|-1----1-1-1--1--1-1-1-3-3-3-3-3-3-3-3-|-------|


   H                H
|------------------13b15---------------|
|------------------15b17---------------|
|-12-----------------------------------|
|-14-----------------------------------|
|--------------------------------------|
|--------------------------------------|
|
|  PM-----------------------------------
|  S S S S S S S S  S    S S S S S S S
|--------------------------------------|
|--------------------------------------|
|--------------------------------------|
|--------------------------------------|
|--0-0-0-0-0-0-0-0--0----0-0-0-0-0-0-0-|
|--------------------------------------|


   ~~~                                  ~~
   H.                        Q          H                Q        Q
|-13------------------------12-------|-10---------------12-------13-------|
|-15------------------------13-------|-12---------------13-------15-------|
|------------------------------------|------------------------------------|
|------------------------------------|------------------------------------|
|------------------------------------|------------------------------------|
|------------------------------------|------------------------------------|
|
|-----------------------------------------------------------------------|
|  S  S S S S S S S S S S S  S S S S    S S S S S S S S  S S S S  S S S S
|------------------------------------|------------------------------------|
|------------------------------------|------------------------------------|
|------------------------------------|------------------------------------|
|------------------------------------|------------------------------------|
|----------------------------0-0-0-0-|------------------------------------|
|--1--1-1-1-1-1-1-1-3-3-3-3----------|--3-3-3-3-3-3-3-3--3-3-3-3--1-1-1-1-|


   Q.              +E     Q        Q
|-13b15r==========(13)---10----------------|
|-15b17r==========(15)---12-------12-------|
|---------------------------------12-------|
|------------------------------------------|
|------------------------------------------|
|------------------------------------------|
|
|  S    S S S S S   S  S  S S S S  S S S S
|------------------------------------------|
|------------------------------------------|
|------------------------------------------|
|------------------------------------------|
|--3----3-3-3-3-3---3--3--3-3-3-3--3-3-3-3-|
|------------------------------------------|


            ~~~~                              ~~~
   E       +Q.            Q        Q          H.                        Q
|-10b11---(10)-----------10----------------|------------------------------------|
|-12b13---(12)-----------12-------13-------|-12---------------------------------|
|---------------------------------14-------|-12------------------------12-------|
|------------------------------------------|---------------------------14-------|
|------------------------------------------|------------------------------------|
|------------------------------------------|------------------------------------|
|
|  S    S   S  S S S S S  S S S S  S S S S    S  S S S S S S S S S S S  S S S S
|------------------------------------------|------------------------------------|
|------------------------------------------|------------------------------------|
|------------------------------------------|------------------------------------|
|------------------------------------------|------------------------------------|
|------------------------------------------|--3--3-3-3-3-3-3-3-3-3-3-3--3-3-----|
|--1----1---1--1-1-1-1-1--1-1-1-1--1-1-3-3-|--------------------------------3-3-|


                                             H.=H
                                             A5
                                              \2
   Q           +Q         Q        Q          H..       E
|------------------------------------------|--------------|
|------------------------------------------|--------------|
|-12b13-------(12)-------12-------10-------|--9-----------|
|-14b15-------(14)-------14-------12-------|-10---------5-|
|------------------------------------------|--------------|
|------------------------------------------|--------------|
|                                             W
|
|  S    S S S   S  S S S  S S S S  S S S S    H..       E
|------------------------------------------|--------------|
|------------------------------------------|------------5-|
|------------------------------------------|--2---------4-|
|------------------------------------------|--2-----------|
|------------------------------------------|--0-----------|
|--1----1-1-1---1--1-1-1--3-3-3-3--3-3-3-3-|--------------|


 11:28
  Q=90
  H..       E   a  H     a  Q   a  Q     Q.    E      Q   Q    H..        S  S
|-------------|-----------------------|----------------------|-----------------|
|-------------|-----------------------|----------------------|-----------------|
|-5-----------|-----------------------|----------------------|-----------------|
|-----------5-|-5h=7-----7S=9---9S10--|--9-----9tr10--9---7--|-6----------7--7-|
|-------------|-----------------------|----------------------|-----------------|
|-------------|-----------------------|----------------------|-----------------|
|
| H..       E   a  H     a  Q   a  Q     Q.    E      Q   Q    H..        S  S
|-------------|-----------------------|----------------------|-----------------|
|-8---------5-|-8h10----10S12--12S13--|-12----12tr13-12--10--|-9---------10-10-|
|-9---------4-|-4h=5-----5S=7---7S=9--|--7-----7tr9---7---5--|-4----------5--5-|
|-------------|-----------------------|----------------------|-----------------|
|-------------|-----------------------|----------------------|-----------------|
|-------------|-----------------------|----------------------|-----------------|
  H..       E   a  H     a  Q   a  Q     Q.    E      Q   Q    H..        S  S


                                             H.=H             E.=40
                                                D.S.S. al Dbl. Coda
   H..          S  S    W               H    a Q   Q    a  Q   +H.
|--------------------|----------------|---------------|----------------|
|--------------------|----------------|---------------|----------------|
|---------------5--5-|--5-------------|---------------|----------------|
|--7-----------------|----------------|-7----7h9---9--|-9S10--(10)-----|
|--------------------|----------------|---------------|----------------|
|--------------------|----------------|---------------|----------------|
|
|  H      Q  Q          W               H      Q   Q    a  W
|--------------------|------------8-8-|-8-------------|----------------|
|-10------8--6-------|--5-------------|-6------5------|----------------|
|--5-----------12-12-|-12-------------|------5h7---7--|-7S=9-----------|
|--------------------|----------------|-----------12--|---10-----------|
|--------------------|----------------|---------------|----------------|
|--------------------|----------------|---------------|----------------|
   H..          S  S    H..       S S   H    a Q   Q       W


 12:19
  Q=13H.=H
  &&
  C5         G5         A5         E5         A5         G5
 3/4
  Gtrs IV, V
   H.         H.         H.         H.         H.         H.
|----------|----------|----------|----------|----------|--------|
|----------|----------|----------|----------|----------|--------|
|--5-------|----------|--2-------|----------|--2-------|--------|
|--5-------|--5-------|--2-------|--2-------|--2-------|--5-----|
|--3-------|--5-------|--0-------|--2-------|--0-------|--5-----|
|----------|--3-------|----------|--0-------|----------|--3-----|
|
| Gtr VI
|  H.         H.         H.         H.         H.         H.
|-12-------|----------|----------|----------|----------|--------|
|-13-------|-15-------|-13-------|-12-------|-13-------|-12-----|
|----------|-16-------|-14-------|-13-------|-14-------|-12-----|
|----------|----------|----------|----------|----------|--------|
|----------|----------|----------|----------|----------|--------|
|----------|----------|----------|----------|----------|--------|


  Free Time ca Q=90
  F5
 4/4
   W           +W            +W            +W
|-----------|-------------|-------------|---------|
|-----------|-------------|-------------|---------|
|-----------|-------------|-------------|---------|
|--3--------|--(3)--------|--(3)--------|--(3)----|
|--3--------|--(3)--------|--(3)--------|--(3)----|
|--1--------|--(1)--------|--(1)--------|--(1)----|
|
|  W           +W            +W            +W
|-----------|-------------|-------------|---------|
|-----------|-------------|-------------|---------|
|-----------|-------------|-------------|---------|
|-15--------|-(15)--------|-(15)--------|-(15)----|
|-15--------|-(15)--------|-(15)--------|-(15)----|
|-13--------|-(13)--------|-(13)--------|-(13)----|


  E5
   W           +W            +W            +W
|-----------|-------------|-------------|---------|
|-----------|-------------|-------------|---------|
|-----------|-------------|-------------|---------|
|--2--------|--(2)--------|--(2)--------|--(2)----|
|--2--------|--(2)--------|--(2)--------|--(2)----|
|--0--------|--(0)--------|--(0)--------|--(0)----|
|
|  W           +W            +W            +W
|-----------|-------------|-------------|---------|
|-----------|-------------|-------------|---------|
|-----------|-------------|-------------|---------|
|-14--------|-(14)--------|-(14)--------|-(14)----|
|-14--------|-(14)--------|-(14)--------|-(14)----|
|-16--------|-(16)--------|-(16)--------|-(16)----|


  A5
  W          +W           +W
|----------|------------|------------|
|----------|------------|------------|
|-2--------|-(2)--------|-(2)--------|
|-2--------|-(2)--------|-(2)--------|
|-0--------|-(0)--------|-(0)--------|
|----------|------------|------------|
|
| Gtr II
| W           W            W
|----------|------------|------------|
|----------|------------|------------|
|----------|------------|------------|
|----------|------------|------------|
|----------|------------|------------|
|----------|------------|------------|


                          Q=75
                             >
  +W           +W           +H.       +Q
|------------|------------|-------------------|
|------------|------------|-------------------|
|-(2)--------|-(2)--------|-(2)-------(2)-----|
|-(2)--------|-(2)--------|-(2)-------(2)-----|
|-(0)--------|-(0)--------|-(0)-------(0)-----|
|------------|------------|-------------------|
|
|  W            W            H..          S S
|------------|------------|-------------------|
|------------|------------|-------------------|
|------------|------------|-------------------|
|------------|------------|-------------------|
|------------|------------|---------------3-2-|
|------------|------------|-------------------|


 13:04
  Am              Am/G              Am/F#           N.C.
  Gtr II
  S S S S S S S S S S S S S S S S   S S S S S S S S S S S S S S S S
|---------0---------------0-------|---------0-----------------------|
|-------1---1---------------1-----|-----------1---------------------|
|-----2-------2---------2-----2---|-------2-----2-------------------|
|---2-----------2-----2---------2-|-----2---------------------------|
|-0-----------------0-------------|---0-----------0-----------0-2-3-|
|-----------------3---------------|-2---------------0-1-2-3-4-------|


  Am              Am/C              Am/F#             N.C.
  S S S S S S S S S S S S S S S S   S   S S S S S S S S S S S S S  S  S
|---------0---------------0-------|-----------0-------------------------|
|-------1---1-----------1---1-----|---------1---1-----------------------|
|-----2-------2-------2-------2---|-------2-------2---------------------|
|---2-----------2---2-------------|-------------------------------------|
|-0---------------3-------------3-|-----0-----------0-----------0--2--3-|
|---------------------------------|-2-----------------0-1-2-3-4---------|
|
| Gtr I
| W                                 H..                            S  S
|---------------------------------|-------------------------------------|
|---------------------------------|-------------------------------13-12-|
|---------------------------------|-------------------------------------|
|---------------------------------|-------------------------------------|
|---------------------------------|-------------------------------------|
|---------------------------------|-------------------------------------|


  Am               Am/G              Am/F#            N.C.
   S S S S S S S S S S S S S S S S    S S S S S S S S S S S S S S S S
|----------0---------------0-------|----------0-----------------------|
|--------1---1---------------1-----|------------1---------------------|
|------2-------2---------2-----2---|--------2-----2-------------------|
|----2-----------2-----2---------2-|------2---------------------------|
|--0-----------------0-------------|----0-----------0-----------0-2-3-|
|------------------3---------------|--2---------------0-1-2-3-4-------|
|
|  W                                  W
|----------------------------------|-17-------------------------------|
|-13-------------------------------|----------------------------------|
|----------------------------------|----------------------------------|
|----------------------------------|----------------------------------|
|----------------------------------|----------------------------------|
|----------------------------------|----------------------------------|


  Am                 Am/C                 Am/F#              N.C.
   S S S S  S S  S S   S  S S S S S S S     S  S S S S S S S S S S S S S S S
|-----------0-------------------0-------|------------0-----------------------|
|--------1----1---------------1---1-----|----------1---1---------------------|
|------2---------2----------2-------2---|--------2-------2-------------------|
|----2-------------2------2-------------|------------------------------------|
|--0-------------------3--------------3-|------0-----------0-----------0-2-3-|
|---------------------------------------|---2----------------0-1-2-3-4-------|
|
|  Q        E    E    +H                   +H.                       Q
|-12------------------------------------|------------------------------------|
|----------13---------------------------|------------------------------------|
|---------------14---(14)---------------|-(14)-------------------------------|
|---------------------------------------|----------------------------6-------|
|---------------------------------------|------------------------------------|
|---------------------------------------|------------------------------------|


                                   13:36
  Am              Am/G              Am/F#           N.C.
  S S S S S S S S S S S S S S S S   S S S S S S S S S S S S S S S S
|---------0---------------0-------|---------0-----------------------*|
|-------1---1---------------1-----|-----------1---------------------*|
|-----2-------2---------2-----2---|-------2-----2-------------------*|
|---2-----------2-----2---------2-|-----2---------------------------*|
|-0-----------------0-------------|---0-----------0-----------0-2-3-*|
|-----------------3---------------|-2---------------0-1-2-3-4-------*|
|
| H               H                 H               H
|---------------------------------|---------------------------------*|
|---------------------------------|---------------------------------*|
|---------------------------------|---------------------------------*|
|-7---------------5---------------|-4-------------------------------*|
|---------------------------------|---------------------------------*|
|---------------------------------|---------------------------------*|



Duration Legend
---------------
W - whole; H - half; Q - quarter; E - 8th; S - 16th; T - 32nd; X - 64th; a - acciaccatura
+ - note tied to previous; . - note dotted; .. - note double dotted
Uncapitalized letters represent notes that are staccato (1/2 duration)
Irregular groupings are notated above the duration line
Duration letters will always appear directly above the note/fret number it represents the
duration for.  Duration letters with no fret number below them represent rests.  Multi-
bar rests are notated in the form Wxn, where n is the number of bars to rest for.  Low
melody durations appear below the staff

Tablature Legend
----------------
 h   - hammer-on
 p   - pull-off
 b   - bend
 pb  - pre-bend
 r   - bend release (if no number after the r, then release immediately)
 /\  - slide into or out of (from/to "nowhere")
 s   - legato slide
 S   - shift slide
 - natural harmonic
[n]  - artificial harmonic
n(n) - tapped harmonic
 ~   - vibrato
 tr  - trill
 T   - tap
 TP  - trem. picking
 PM  - palm muting
\n/  - tremolo bar dip; n = amount to dip
 \n  - tremolo bar down
 n/  - tremolo bar up
/n\  - tremolo bar inverted dip
 =   - hold bend; also acts as connecting device for hammers/pulls
 <> - volume swell (louder/softer)
 x   - on rhythm slash represents muted slash
 o   - on rhythm slash represents single note slash

Misc Legend
-----------
 |  - bar
||  - double bar
||o - repeat start
o|| - repeat end
*|  - double bar (ending)
 :  - bar (freetime)
 $  - Segno
 &  - Coda
Tempo markers -  = BPM(8/16=s8/s16), where s8 = swing 8ths, s16 = swing 16ths


            
            
Suggest correction
Creating personal tab
Creating personal tab
You can edit any tab online and save it as your Personal.

You can edit, replace or remove any tab part or add personal notes – all changes will be seen only by you.

Personal tabs can be accessed anytime from any device, even offline.
Learn more »
Give kudos to tab author, rate the tab!
1 2 3 4 5
comments
print report bad tab
1 comment total.
0 reply
Ratt n' Roll 205 Apr 23, 2009 03:27 PM

Thank You so much this song is just amazing.

guest
You may want to rate the tab now too:
select rating
Wanna post a correction for this tab? Suggest correction