Oops, an error
Loading. Please wait.

One Thing bass

version 1
version 1

Whole song

Interactive

1,715 views 1 this week
1 commentread comment
1 2 3 4 5
2 more votes to show rating
add to favorites
×
Save as Personal and add changes to this tab that will be seen only by you. Learn more ›
×
You can save this tab as Personal to edit and correct it or add notes. All changes will be seen only by you. Learn more »
launch autoscroll
font size
0
reset
guitar tuner
edit
Autoscroll
slow
fast
+/-
esc
set tempo
stop
tabbed by: chris
band: hellyeah
song: one thing
tuning: A# F A# D# G


intro x10
G |---------------------------------------------|
D#|---------------------------------------------|
A#|---------------------------------------------|
F |--------------------------------------3^-----|
A#|-0-0-6^-0-6^-0-00-6^-0-0-6^-0-6^-0-00--------|

chorus x5
G |------------------------------------|
D#|------------------------------------|
A#|------------------------------------|
F |-------------------3-------5-5-5----|
A#|-0-2-3-0-6-5-0-2-3---0-2-3----------|

intro x10
chorus x7

bridge/solo x 7 ( i think )
G |-------------------------------------|
D#|-------------------------------------|
A#|-------------------------------------|
F |-------------------------------------|
A#|-55555555555555574444444511110000----|

after solo many times
G |---------------------------|
D3|---------------------------|
A#|---------------------------|
f |---------------------------|
A#|--0-0--0-0-0--0-0--0-0-0---|

intro x3
chorus x7

outro
G |------------------------|
D#|------------------------|
A#|------------------------|
F |---5---3----------------|
A#|----6---5-----00000-----|

im not 100% sure on the tuning for this song but if u know please contact me through my 
and i shall update the tab. im also not completely sure on the times u repeat the riffs 
any help would be greatly appreciated

            
            
Suggest correction
Creating personal tab
Creating personal tab
You can edit any tab online and save it as your Personal.

You can edit, replace or remove any tab part or add personal notes – all changes will be seen only by you.

Personal tabs can be accessed anytime from any device, even offline.
Learn more »
Give kudos to tab author, rate the tab!
1 2 3 4 5
comments
print report bad tab
1 comment total.
0 reply
goddamn_people3 10 Jan 10, 2008 07:17 AM

the tuning on all HELLYEAH songs besides "Alcohaulin' Ass" are in
Drop-D 2 and half steps down A# F A# D# G C

guest
You may want to rate the tab now too:
select rating
Wanna post a correction for this tab? Suggest correction