Oops, an error
Loading. Please wait.

Wilmas Rainbow bass

version 2
version 2

Whole song

Interactive

by Helmet
1,818 views 9 this week
no commentswrite comment
1 2 3 4 5
2 more votes to show rating
add to favorites
×
Save as Personal and add changes to this tab that will be seen only by you. Learn more ›
×
You can save this tab as Personal to edit and correct it or add notes. All changes will be seen only by you. Learn more »
launch autoscroll
font size
0
reset
guitar tuner
edit
Autoscroll
slow
fast
+/-
esc
set tempo
stop
Artist - Helmet
Song - Wilmas Rainbow
Album - Betty
Bassist - Henry Bogdan
Tabber - Str84ever

I will be tabbing all of the Betty album for bass at some point in the not too distant 
 Enjoy

Intro:

G|----------------------|
D|----------------------|
A|----------------------|
D|-0-0-4h5-0-0-3b-0-3v--|

Pre-verse/Verse: - This is transition from Intro to Verse as well as the Verse itself. 
don't need the muted strings. i like playing them though.

G|---------------------|------------------|
D|---------------------|------------------|
A|---------------------|------------------|
D|-3-0-3-x-x-3-0-3-x-x-|-3-0-3-x-x-3-0-5b-|

G|---------------------|----------------|
D|---------------------|----------------|
A|---------------------|----------------|
D|-3-0-3-x-x-3-0-3-x-x-|-3-0-5b-3-0-5-3-|

Chorus - note the rhythm in the chorus, first two D notes are held longer than the 
two as well as the first Eb is held longer than three after it.

G|---------------------------------|
D|---------------------------------|
A|---------------------------------|
D|-0--0--0-0--3-x-1--1-1-1/4-4-4-4-|

G|---------------------------------|
D|---------------------------------|
A|---------------------------------|
D|-0--0--0-0--3-x-1--1-1-1/6-6-6-6-|

G|---------------------------------|
D|---------------------------------|
A|---------------------------------|
D|-0--0--0-0--3-x-1--1-1-1/4-4-4-4-|

Pre-verse 2/Verse 2:
G|---------------------|------------------|
D|---------------------|------------------|
A|---------------------|------------------|
D|-3-0-3-x-x-3-0-3-x-x-|-3-0-3-x-x-3-0-5b-|

G|---------------------|----------------|
D|---------------------|----------------|
A|---------------------|----------------|
D|-3-0-3-x-x-3-0-3-x-x-|-3-0-5b-3-0-5-3-|

Chorus 2

G|---------------------------------|
D|---------------------------------|
A|---------------------------------|
D|-0--0--0-0--3-x-1--1-1-1/4-4-4-4-|

G|---------------------------------|
D|---------------------------------|
A|---------------------------------|
D|-0--0--0-0--3-x-1--1-1-1/6-6-6-6-|

G|---------------------------------|
D|---------------------------------|
A|---------------------------------|
D|-0--0--0-0--3-x-1--1-1-1/4-4-4-4-|

Bridge - same as intro

G|----------------------|
D|----------------------|
A|----------------------|
D|-0-0-4h5-0-0-3b-0-3v--|

Chorus 3:

G|---------------------------------|
D|---------------------------------|
A|---------------------------------|
D|-0--0--0-0--3-x-1--1-1-1/4-4-4-4-|

G|---------------------------------|
D|---------------------------------|
A|---------------------------------|
D|-0--0--0-0--3-x-1--1-1-1/6-6-6-6-|

G|---------------------------------|
D|---------------------------------|
A|---------------------------------|
D|-0--0--0-0--3-x-1--1-1-1/4-4-4-4-|

Outro - the second bar is occasionally thrown in

G|----------------------|-------|
D|----------------------|-------|
A|----------------------|-------|
D|-0-0-4h5-0-0-3b-0-3v--|-3-3-3-|

the actual ending is just - after it pauses

G|----------------------------------|
D|----------------------------------|
A|----------------------------------|
D|-0-0-4h5-0-0-3b-0-x-x-x-3-3-3-3-0-|

END.

Any questions ask on my UG profile.

            
            
Suggest correction
Creating personal tab
Creating personal tab
You can edit any tab online and save it as your Personal.

You can edit, replace or remove any tab part or add personal notes – all changes will be seen only by you.

Personal tabs can be accessed anytime from any device, even offline.
Learn more »
Give kudos to tab author, rate the tab!
1 2 3 4 5
comments
print report bad tab
guest
You may want to rate the tab now too:
select rating
Wanna post a correction for this tab? Suggest correction