Oops, an error
Loading. Please wait.

Moon River tab

version 3
version 3

Whole song

  • On this version I consider to include tabs and cho... Show more
857 views 9 this week
no commentswrite comment
1 2 3 4 5
1 last vote to show rating
add to favorites
×
Save as Personal and add changes to this tab that will be seen only by you. Learn more ›
×
You can save this tab as Personal to edit and correct it or add notes. All changes will be seen only by you. Learn more »
launch autoscroll
font size
0
reset
how to read this tab
guitar tuner
edit
Autoscroll
slow
fast
+/-
esc
set tempo
stop
Author
Difficulty
Moon River by Henry Mancini

Tabs written and arranged by Edwin-E (in YouTube)
Blog: http://guitarplucking.blogspot.com
Facebook Page: EGuitar

Video Tutorial:  http://www.youtube.com/watch?v=lJBnjxTLtkQ

E|--2---|
B|--1---|
G|--2---|
D|--0---|
A|------|
E|------|
D7

E|----------------3/5—3--------2--0--------------------|
B|--3--------------------------------3--1--3-----------|
G|----------0------------------------------------------|
D|-------0-----0------------2--------------------0-----|
A|----2------------------2-----3--------------2--------|
E|--3-------------0------------------------3-----------|
 G   Em    C             G
Moon River wider than a mile,


E|-----2--0--------------------------------------2--|
B|-----------3--1--3-----------------1-----------4--|
G|--0-----------------------0--2-----------------2--|
D|-----------------------0--------2-----2-----4--4--|
A|-----3--------------2--------0-----------2-----2--|
E|-----------------3--------------------------------|
      C              G      Am    B7
I’m crossing you in style someday


E|--------------------------------------|
B|--------------3--0--------------3--0--|
G|--2--0--------------2--0-----0--------|
D|-----------2--------------2-----------|
A|--------2--------------3--------------|
E|-----0--------3-----------------1-----|
     Em     G         C      F
Oh, dream maker, you heartbreaker,


E|--------------------3--2--0--2--0-----0--------2--|
B|--------------0--3-----------------3-----------1--|
G|--2--0--------------------------------------2--2--|
D|-----------2-----------------------------2-----0--|
A|--------2--------------------2--------0-----------|
E|-----0--------------2-----------0-----------------|
     Em     Em7 F#7-Bm7   E7        Am7 D7
Wherever you’re going I’m going your way


E|----------------3/5—3--------2--0--------------------|
B|--3--------------------------------3--1--3-----------|
G|----------0------------------------------------------|
D|-------0-----0------------2--------------------0-----|
A|----2------------------2-----3--------------2--------|
E|--3-------------0------------------------3-----------|
 G   Em       C             G
Two drifters off to see the world,


E|-----2--0--------------------------------------2--|
B|-----------3--1--3-----------------1-----------4--|
G|--0-----------------------0--2-----------------2--|
D|-----------------------0--------2-----2-----4--4--|
A|-----3--------------2--------0-----------2-----2--|
E|-----------------3--------------------------------|
  C                    G       Am B7
There’s such a lot of world to see


E|--------------------0--3--5--3-----------|
B|-----------------0--------------3--------|
G|--2--0--------0--------------------------|
D|-----------2-----0--------------------0--|
A|--------2--------------4-----------2-----|
E|-----0--------------------------3--------|
      Em Em7    C#m7      C        G
We’re after the same     rainbows end,


E|-----2--0-----------------|
B|-----------3--1--3--------|
G|--0-----------------------|
D|-----------------------0--|
A|-----3--------------2-----|
E|-----------------3--------|
C                      G
And waiting round the bend,


E|-----2--0-----------------|
B|-----------3--1--3--------|
G|--0-----------------------|
D|-----------------------0--|
A|-----3--------------2-----|
E|-----------------3--------|
C                G
My huckleberry friend,


E|--------------2-----------------3--|
B|-----1--------1--0--------------0--|
G|--0-----2-----2-----0--------0--0--|
D|-----------2--0-----------0-----0--|
A|-----0-----------------2--------2--|
E|--------------------3-----------3--|
Am        D7    G
Moon River, and me

            
            
Suggest correction
Creating personal tab
Creating personal tab
You can edit any tab online and save it as your Personal.

You can edit, replace or remove any tab part or add personal notes – all changes will be seen only by you.

Personal tabs can be accessed anytime from any device, even offline.
Learn more »
Give kudos to tab author, rate the tab!
1 2 3 4 5
comments
print report bad tab
guest
You may want to rate the tab now too:
select rating
Wanna post a correction for this tab? Suggest correction