Oops, an error
Loading. Please wait.

Fun And Fucking Mind Games bass

1,293 views 1 this week
no commentswrite comment
1 2 3 4 5
3 more votes to show rating
add to favorites
×
Save as Personal and add changes to this tab that will be seen only by you. Learn more ›
×
You can save this tab as Personal to edit and correct it or add notes. All changes will be seen only by you. Learn more »
launch autoscroll
font size
0
reset
guitar tuner
edit
Autoscroll
slow
fast
+/-
esc
set tempo
stop
Difficulty
http://www.myspace.com/herbloodydescent

Her Bloody Descent


Fun And Fucking Mind Games

E-A-D-G
240bpm
enjoy!!!


|--------------------------------|---------------------------------|
|--------------------------------|---------------------------------|
|-0-3-2-1---0---------------0----|-1---------2---3----x------------|
|--------------------------------|---------------------------------|


|--------------------------------|
|--------------------------------|
|--X---X---X---X-----------------|
|--------------------------------|


|--------------------------------|---------------------------------|
|--------------------------------|---------------------------------|
|-5---5---5---5---5---5---6---6--|-5---5---5---5---5---5---3---3---|
|--------------------------------|---------------------------------|

|--------------------------------|---------------------------------|
|--------------------------------|---------------------------------|
|-5---5---5---5---5---5---6---6--|-10------12------13------12------|
|--------------------------------|---------------------------------|


|--------------------------------|---------------------------------|
|--------------------------------|---------------------------------|
|-5---5---5---5---5---5---6---6--|-5---5---5---5---5---5---3---3---|
|--------------------------------|---------------------------------|

|--------------------------------|---------------------------------|
|--------------------------------|---------------------------------|
|-5---5---5---5---5---5---6---6--|-10------12------13------12------|
|--------------------------------|---------------------------------|

|-------------5------------------|-----------------3---------------|
|--------------------------------|---------------------------------|
|-3------------------------------|-1-------------------------------|
|--------------------------------|---------------------------------|

|-------------5------------------|---------------------------------|
|--------------------------------|---------------------------------|
|-3------------------------------|-8---------------7---------------|
|--------------------------------|---------------------------------|

|--------------------------------|---------------------------------|
|--------------------------------|---------------------------------|
|-5---5---5---5---5---5---6---6--|-5---5---5---5---5---5---3---3---|
|--------------------------------|---------------------------------|

|--------------------------------|---------------------------------|
|--------------------------------|---------------------------------|
|-5---5---5---5---5---5---6---6--|-10------12------13------12------|
|--------------------------------|---------------------------------|


|--------------------------------|---------------------------------|
|--------------------------------|---------------------------------|
|-5---5---5---5---5---5---6---6--|-5---5---5---5---5---5---3---3---|
|--------------------------------|---------------------------------|

|--------------------------------|---------------------------------|
|--------------------------------|---------------------------------|
|-5---5---5---5---5---5---6---6--|-10------12------13------12------|
|--------------------------------|---------------------------------|

|-------------5------------------|-----------------3---------------|
|--------------------------------|---------------------------------|
|-3------------------------------|-1-------------------------------|
|--------------------------------|---------------------------------|

|-------------5------------------|---------------------------------|
|--------------------------------|---------------------------------|
|-3------------------------------|-8---------------7---------------|
|--------------------------------|---------------------------------|

|--------------------------------|---------------------------------|
|--------------------------------|---------------------------------|
|--------------------------------|-6---6---6---6---6---6---6---6---|
|-4---4---4---4---4---4---4---4--|---------------------------------|

|--------------------------------|---------------------------------|
|--------------------------------|---------------------------------|
|--------------------------------|-6---6---6---6---6---6---6---6---|
|-4---4---4---4---4---4---4---4--|---------------------------------|

|--------------------------------|---------------------------------|
|--------------------------------|---------------------------------|
|-----------------0--------------|-0-------------------------------|
|-4-------4---4------------------|---------------------------------|

|--------------------------------|---------------------------------|
|-------BREAK FOR A BIT----------|----NO BASS----------------------|
|--------------------------------|---------------------------------|
|--------------------------------|---------------------------------|


|--------------------------------|-ONE-----TWO------THREE----------|
|--------------------------------|---------------------------------|
|--------------------------------|---------------------------------|
|--------------------------------|---------------------------13////|

|--------------------------------|---------------------------------|
|--------------------------------|---------------------------------|
|--------------------------------|-2---------------2---------------|
|-3-------------3----------------|---------------------------------|

|--------------------------------|---------------------------------|
|--------------------------------|-0---------------0---------------|
|-3-------------3----------------|---------------------------------|
|--------------------------------|---------------------------------|

|--------------------------------|---------------------------------|
|--------------------------------|---------------------------------|
|--------------------------------|-2---------------2---------------|
|-3-------------3----------------|---------------------------------|

|--------------------------------|---------------------------------|
|--------------------------------|-0---------------0---------------|
|-3-------------3----------------|---------------------------------|
|--------------------------------|---------------------------------|

BACK TO MAIN THING

|--------------------------------|---------------------------------|
|--------------------------------|---------------------------------|
|-0-3-2-1---0---------------0----|-1---------2---3----x------------|
|--------------------------------|---------------------------------|

|--------------------------------|
|--------------------------------|
|--X---X---X---X-----------------|
|--------------------------------|

|--------------------------------|---------------------------------|
|--------------------------------|---------------------------------|
|-5---5---5---5---5---5---6---6--|-5---5---5---5---5---5---3---3---|
|--------------------------------|---------------------------------|

|--------------------------------|---------------------------------|
|--------------------------------|---------------------------------|
|-5---5---5---5---5---5---6---6--|-10------12------13------12------|
|--------------------------------|---------------------------------|


|--------------------------------|---------------------------------|
|--------------------------------|---------------------------------|
|-5---5---5---5---5---5---6---6--|-5---5---5---5---5---5---3---3---|
|--------------------------------|---------------------------------|

|--------------------------------|---------------------------------|
|--------------------------------|---------------------------------|
|-5---5---5---5---5---5---6---6--|-10------12------13------12------|
|--------------------------------|---------------------------------|

|-------------5------------------|-----------------3---------------|
|--------------------------------|---------------------------------|
|-3------------------------------|-1-------------------------------|
|--------------------------------|---------------------------------|

|-------------5------------------|---------------------------------|
|--------------------------------|---------------------------------|
|-3------------------------------|-8---------------7---------------|
|--------------------------------|---------------------------------|


|--------------------------------|---------------------------------|
|--------------------------------|---------------------------------|
|-5---5---5---5---5---5---6---6--|-5---5---5---5---5---5---3---3---|
|--------------------------------|---------------------------------|


|--------------------------------|---------------------------------|
|--------------------------------|---------------------------------|
|-5---5---5---5---5---5---6---6--|-10------12------13------12------|
|--------------------------------|---------------------------------|


|--------------------------------|---------------------------------|
|--------------------------------|---------------------------------|
|-5---5---5---5---5---5---6---6--|-5---5---5---5---5---5---3---3---|
|--------------------------------|---------------------------------|

|--------------------------------|---------------------------------|
|--------------------------------|---------------------------------|
|-5---5---5---5---5---5---6---6--|-10------12------13------12------|
|--------------------------------|---------------------------------|

|-------------5------------------|-----------------3---------------|
|--------------------------------|---------------------------------|
|-3------------------------------|-1-------------------------------|
|--------------------------------|---------------------------------|

|-------------5------------------|---------------------------------|
|--------------------------------|---------------------------------|
|-3------------------------------|-8---------------7---------------|
|--------------------------------|---------------------------------|

|--------------------------------|---------------------------------|
|--------------------------------|---------------------------------|
|--------------------------------|-6---6---6---6---6---6---6---6---|
|-4---4---4---4---4---4---4---4--|---------------------------------|

|--------------------------------|---------------------------------|
|--------------------------------|---------------------------------|
|--------------------------------|-6---6---6---6---6---6---6---6---|
|-4---4---4---4---4---4---4---4--|---------------------------------|

|--------------------------------|---------------------------------|
|--------------------------------|---------------------------------|
|-----------------0--------------|-0-------------------------------|
|-4-------4---4------------------|---------------------------------|

BREAK

COUNT IN:

|--------------------------------|-ONE-----TWO---------------------|
|--------------------------------|---------------------------------|
|--------------------------------|------------------4---3---2---1--|
|--------------------------------|---------------------------------|

REPEAT TO FADE: it's hard to tab accurately, but you'll understand once you hear it :D

|--------------------------------|---------------------------------|
|--------------------------------|---------------------------------|
|-0-------0---------------3--3---|-3-----1--1--1-----4--4--4-------|
|--------------------------------|---------------------------------|

tabbed by zach

            
            
Suggest correction
Creating personal tab
Creating personal tab
You can edit any tab online and save it as your Personal.

You can edit, replace or remove any tab part or add personal notes – all changes will be seen only by you.

Personal tabs can be accessed anytime from any device, even offline.
Learn more »
Give kudos to tab author, rate the tab!
1 2 3 4 5
comments
print report bad tab
guest
Wanna post a correction for this tab? Suggest correction