Oops, an error
Loading. Please wait.

Burn All The Small Towns tab

version 1
version 1

Whole song

1,492 views 1 this week
1 commentread comment
1 2 3 4 5
2 more votes to show rating
add to favorites
×
Save as Personal and add changes to this tab that will be seen only by you. Learn more ›
×
You can save this tab as Personal to edit and correct it or add notes. All changes will be seen only by you. Learn more »
launch autoscroll
font size
0
reset
how to read this tab
guitar tuner
edit
Autoscroll
slow
fast
+/-
esc
set tempo
stop
Tabbed by: Joshua Garcia (joshuag523@aol.com)

Tabs for the song: Burn All The Small Towns by Herbrightskies
Please rate and let me know if you have any corrections. Thank you.

*Updated on 06/11/13 - Major improvement on whole tab. Pretty much entirely 
re-tabbed. Now much more accurate. *


Tuning: Drop C# (C# G# C# F# A# D#)


Intro
Guitar 1:
D#||--0~---------------------------0~------|--0~-----------------|
A#||-----6~--------------------6~----------|------6~-------------|
F#||--------5~----------5~-------------5~--|---------5~------5~--|
C#||----------------7~------7~-------------|-----------------x---| x2
G#||---------------------------------------|-----------------7~--|
C#||---------------------------------------|---------------------|


Guitar 2:
D#||-------|------|-------|------------------|
A#||-------|------|-------|------------------|
F#||-------|------|-------|------------------|
C#||--10~--|--0~--|--10~--|--10~-----10------|
G#||--8~---|--0~--|--8~---|--7~----------7~--|
C#||--8~---|--0~--|--8~---|--7~--------------|


D#||-------|-------|-------|-----------------------|
A#||-------|-------|-------|-----------------------|
F#||-------|-------|-------|-----------------------|
C#||--10~--|---0~--|--10~--|--10~------------------|
G#||--8~---|---0~--|--8~---|--7~-------------------|
C#||--8~---|---0~--|--8~---|--7~-------------0-'2--|



Pre-Verse
Guitar 1:
D#||-------------------------------------|-------------------------------------|
A#||-------------------------------------|-------------------------------------|
F#||--9-10-9--------------------9---9----|--9-10-9--------------------9---9----|
C#||---------10-10-12--10-12-10---9---9--|---------10-10-12--10-12-10---9---9--|
G#||-------------------------------------|-------------------------------------|
C#||-------------------------------------|-------------------------------------|


D#||--------------------------------------|
A#||--6666666666666666-55555555-88888888--|
F#||--7777777777777777-77777777-77777777--|
C#||--------------------------------------| x2
G#||--------------------------------------|
C#||--------------------------------------|


Guitar 2:
D#||--------------------------------------|--------------------------------------|
A#||--------------------------------------|--------------------------------------|
F#||--------------------------------------|--------------------------------------|
C#||--0-0--'4'4'4--3-5-0--'4'4'4'4'4'4'4--|--0-0--'4'4'4--3-5-0--'4'4'4'4'4'4'4--|
G#||--0-0----------3-5-0------------------|--0-0----------3-5-0------------------|
C#||--0-0----------3-5-0------------------|--0-0----------3-5-0------------------|


D#||--------------------------------------------------------------------|
A#||--------------------------------------------------------------------|
F#||--------------------------------------------------------------------| x2
C#||--1010101010101010101010101010101010101010101010101010101010101010--|
G#||--8-8-8-8-8-8-8-8-8-8-8-8-8-8-8-8-8-8-8-8-8-8-8-8-7-7-7-7-7-7-7-7---|
C#||--8-8-8-8-8-8-8-8-8-8-8-8-8-8-8-8-8-8-8-8-8-8-8-8-7-7-7-7-7-7-7-7---|



Verse
Guitar 1:
D#||---------------------------------------------------------------------------|
A#||----------------------------------------------------------------------8----|
F#||--77--77--7~----55--55--5~----1010--1010--10~---99--99--9~--9-10-9------9--|
C#||--xx--xx--x-----xx--xx--x-----x-x---x-x---x-----xx--xx--x----------10------| x2
G#||--55--55--5~----33--33--3~----8-8---8-8---8~----77--77--7~-----------------|
C#||---------------------------------------------------------------------------|


Guitar 2:
D#||-------------|-------------|-------------|------------------|
A#||-------------|-------------|-------------|------------------|
F#||-------------|-------------|-------------|------------------|
C#||--00--00--0--|--88--88--8--|--55--55--5--|--1010--1010--10--|
G#||--00--00--0--|--88--88--8--|--55--55--5--|--1010--1010--10--|
C#||--00--00--0--|--88--88--8--|--55--55--5--|--1010--1010--10--|


D#||-------------------|-------------------|-------------------|------------------|
A#||-------------------|-------------------|-------------------|------------------|
F#||-------------------|-------------------|-------------------|------------------|
C#||--00--00--0--0--0--|--88--88--8--8--8--|--55--55--5--5--5--|--1010--1010--10--|
G#||--00--00--0--0--0--|--88--88--8--8--8--|--55--55--5--5--5--|--1010--1010--10--|
C#||--00--00--0--0--0--|--88--88--8--8--8--|--55--55--5--5--5--|--1010--1010--10--|



Pre-Chorus
Guitar 1:
D#||-------------------------------------|--------------------------------------|
A#||-------------------------------------|--------------------------------------|
F#||--10-----9-----7-----9-----10---9----|--10-----9-----7-----10-----12---9----|
C#||-----0-0---0-0---0-0---0-0----0---0--|-----0-0---0-0---0-0----0-0----0---0--|
G#||-------------------------------------|--------------------------------------|
C#||-------------------------------------|--------------------------------------|


D#||-------------------------------------|-------------------------------|
A#||-------------------------------------|-------------------------------|
F#||--10-----9-----7-----9-----10---9----|--10-----9-----7-----10--------|
C#||-----0-0---0-0---0-0---0-0----0---0--|-----0-0---0-0---0-0----0-0-0--|
G#||-------------------------------------|----------------------------0--|
C#||-------------------------------------|----------------------------0--|


Guitar 2:
D#||-----------------------------------------------------------------------------------|
A#||-----------------------------------------------------------------------------------|
F#||-----------------------------------------------------------------------------------|
C#||--------10-10-10-------10-10-10-----10-10-------10-10-10-------10-10-10-----10-10--|
G#||-----------------------------------------------------------------------------------|
C#||--8-8-8----------8-8-8----------8-8-------0-0-0----------0-0-0----------0-0--------|


D#||---------------------------------------------------------------------------|
A#||---------------------------------------------------------------------------|
F#||---------------------------------------------------------------------------|
C#||--------10-10-10-------10-10-10-----10-10-------10-10-10-------10-10-10-0--|
G#||------------------------------------------------------------------------0--|
C#||--8-8-8----------8-8-8----------8-8-------0-0-0----------0-0-0----------0--|



Chorus
Guitar 1:
D#||--8-----------------------------------------------------------------------|
A#||--------------------------------------------------------------------------|
F#||-------10--------10--------10--------10------10--9--10------10--9--10-----|
C#||----10-----10-10-----10-10-----10-10----10--------------10------------10--|
G#||--------------------------------------------------------------------------|
C#||--------------------------------------------------------------------------|


D#||------------------------------------------------------------------------------|
A#||-----------------------------------------------------------8----8----10-8-----|
F#||-----10--------10--------10--------10--7---10-9-7-9h10-7-7---10---10------10--|
C#||--10-----10-10-----10-10-----10-10--------------------------------------------|
G#||------------------------------------------------------------------------------|
C#||------------------------------------------------------------------------------|


D#||--8-----------------------------------------------------------------------|
A#||--------------------------------------------------------------------------|
F#||-------10--------10--------10--------10------10--9--10------10--9--10-----|
C#||----10-----10-10-----10-10-----10-10----10--------------10------------10--|
G#||--------------------------------------------------------------------------|
C#||--------------------------------------------------------------------------|


D#||-----------------------------------------------------------------------------------|
A#||-----------------------------------------------------------8----8----10-8-----8-~--|
F#||-----10--------10--------10--------10--7---10-9-7-9h10-7-7---10---10------10--10~--|
C#||--10-----10-10-----10-10-----10-10-------------------------------------------------|
G#||-----------------------------------------------------------------------------------|
C#||-----------------------------------------------------------------------------------|


Guitar 2:
D#||-------------------------------------------------------------------------------------------|
A#||-------------------------------------------------------------------------------------------|
F#||-------------------------------------------------------------------------------------------|
C#||--0-00-000-000-000-10-1010-101010-101010-101010-0-00-000-000-000-10-1010-10101010-33333/5--| x2
G#||--0-00-000-000-000-8--8-8--8-8-8--8-8-8--8-8-8--0-00-000-000-000-10-1010-10101010-33333/5--|  
C#||--0-00-000-000-000-8--8-8--8-8-8--8-8-8--8-8-8--0-00-000-000-000-10-1010-10101010-33333/5--|

D#||------|
A#||------|
F#||------|
C#||--0~--|
G#||--0~--|
C#||--0~--|



Breakdown
Guitar 1:
D#||-----------------|-------------------------|
A#||-----------------|-------------------------|
F#||--99-----9--9----|--99-----9--9~-----------|
C#||--xx-----x--x----|--xx-----x--x-----0-0-0--|
G#||--88-----8--8----|--88-----8--8~----0-0-0--|
C#||-----------------|------------------0-0-0--|
                                        . . .

D#||-----------------|-------------------------|
A#||-----------------|-------------------------|
F#||--99-----9--9----|--99-----9--9~------9-7--|
C#||--xx-----x--x----|--xx-----x--x------------|
G#||--88-----8--8----|--88-----8--8~-----------|
C#||-----------------|-------------------------|



Guitar 2:
D#||-----------------|-------------------------|
A#||-----------------|-------------------------|
F#||-----------------|-------------------------|
C#||--00-----0--0----|--00-----0--0~----0-0-0--|
G#||--00-----0--0----|--00-----0--0~----0-0-0--|
C#||--00-----0--0----|--00-----0--0~----0-0-0--|
                                        . . .

D#||-----------------|-------------------------|
A#||-----------------|-------------------------|
F#||-----------------|-------------------------|
C#||--00-----0--0----|--00-----0--0~------7-7--|
G#||--00-----0--0----|--00-----0--0~------7-7--|
C#||--00-----0--0----|--00-----0--0~------7-7--|



Bridge
Guitar 1:
D#||----------------------------------------------------------------|
A#||----------------------------------------------------------------|
F#||--10-----9-----7---10-----9-----7--------99999-----9999/101010--| x2
C#||-----0-0---0-0---0----0-0---0-0---0---0--xxxxx--0--xxxx/x-x-x---|
G#||--------------------------------------0--77777--0--7777/8-8-8---|
C#||--------------------------------------0---------0---------------|


Guitar 2:
D#||---------------------------------------------|
A#||---------------------------------------------|
F#||----------------------99999-----9999/101010--| x2
C#||-88888888-55555555-0--xxxxx--0--xxxx/x-x-x---|
G#||-88888888-55555555-0--77777--0--7777/8-8-8---|
C#||-88888888-55555555-0---------0---------------|



Pre-Chorus
Guitar 1:
D#||-------------------------------------|--------------------------------------|
A#||-------------------------------------|--------------------------------------|
F#||--10-----9-----7-----9-----10---9----|--10-----9-----7-----10-----12---9----|
C#||-----0-0---0-0---0-0---0-0----0---0--|-----0-0---0-0---0-0----0-0----0---0--|
G#||-------------------------------------|--------------------------------------|
C#||-------------------------------------|--------------------------------------|


D#||-------------------------------------|---------------------------------|
A#||-------------------------------------|---------------------------------|
F#||--10-----9-----7-----9-----10---9----|--10-----9-----7-----------------|
C#||-----0-0---0-0---0-0---0-0----0---0--|-----0-0---0-0---0-0-0---0--x-x--|
G#||-------------------------------------|-------------------0-0---0--x-x--|
C#||-------------------------------------|-------------------0-0---0--x-x--|


Guitar 2:
D#||-----------------------------------------------------------------------------------|
A#||-----------------------------------------------------------------------------------|
F#||-----------------------------------------------------------------------------------|
C#||--------10-10-10-------10-10-10-----10-10-------10-10-10-------10-10-10-----10-10--|
G#||-----------------------------------------------------------------------------------|
C#||--8-8-8----------8-8-8----------8-8-------0-0-0----------0-0-0----------0-0--------|


D#||-------------------------------------------------------------------------|
A#||-------------------------------------------------------------------------|
F#||-------------------------------------------------------------------------|
C#||--------10-10-10-------10-10-10-----10-10-------10-10-10---0-0---0--x-x--|
G#||-----------------------------------------------------------0-0---0--x-x--|
C#||--8-8-8----------8-8-8----------8-8-------0-0-0----------0-0-0---0--x-x--|



Chorus / Outro
Guitar 1:
D#||--8-----------------------------------------------------------------------|
A#||--------------------------------------------------------------------------|
F#||-------10--------10--------10--------10------10--9--10------10--9--10-----|
C#||----10-----10-10-----10-10-----10-10----10--------------10------------10--|
G#||--------------------------------------------------------------------------|
C#||--------------------------------------------------------------------------|


D#||------------------------------------------------------------------------------|
A#||-----------------------------------------------------------8----8----10-8-----|
F#||-----10--------10--------10--------10--7---10-9-7-9h10-7-7---10---10------10--|
C#||--10-----10-10-----10-10-----10-10--------------------------------------------|
G#||------------------------------------------------------------------------------|
C#||------------------------------------------------------------------------------|


D#||--8-----------------------------------------------------------------------|
A#||--------------------------------------------------------------------------|
F#||-------10--------10--------10--------10------10--9--10------10--9--10-----|
C#||----10-----10-10-----10-10-----10-10----10--------------10------------10--|
G#||--------------------------------------------------------------------------|
C#||--------------------------------------------------------------------------|


D#||-----------------------------------------------------------------------------------|
A#||-----------------------------------------------------------8----8----10-8-----8-~--|
F#||-----10--------10--------10--------10--7---10-9-7-9h10-7-7---10---10------10--10~--|
C#||--10-----10-10-----10-10-----10-10-------------------------------------------------|
G#||-----------------------------------------------------------------------------------|
C#||-----------------------------------------------------------------------------------|


Guitar 2:
D#||-------------------------------------------------------------------------------------------|
A#||-------------------------------------------------------------------------------------------|
F#||-------------------------------------------------------------------------------------------|
C#||--0-00-000-000-000-10-1010-101010-101010-101010-0-00-000-000-000-10-1010-10101010-33333/5--| x2
G#||--0-00-000-000-000-8--8-8--8-8-8--8-8-8--8-8-8--0-00-000-000-000-10-1010-10101010-33333/5--|  
C#||--0-00-000-000-000-8--8-8--8-8-8--8-8-8--8-8-8--0-00-000-000-000-10-1010-10101010-33333/5--|


Guitar 2:
D#||-----|
A#||-----|
F#||-----|
C#||--0~-|
G#||--0~-|
C#||--0~-|


Guitar 1/2:
D#||-----|
A#||-----|
F#||-----|
C#||--0--|
G#||--0--|
C#||--0--|




Tablature Legend
----------------
 h   hammer-on
 p   pull-off
 b   bend
 pb  pre-bend
 r   release bend
 ~   hold / vibrato
 .   palm mute
 /   slide up
 \   slide down
 *   pinch harmonic
 '   natural harmonic
 x   mute note
 T   tap

            
            
Suggest correction
Creating personal tab
Creating personal tab
You can edit any tab online and save it as your Personal.

You can edit, replace or remove any tab part or add personal notes – all changes will be seen only by you.

Personal tabs can be accessed anytime from any device, even offline.
Learn more »
Give kudos to tab author, rate the tab!
1 2 3 4 5
comments
print report bad tab
1 comment total.
0 reply
ASaint&Viper 10 Jan 08, 2010 08:49 PM

PREEEESE make a tab of To Write Love On Her Arms by HBS. I love BATST so thanks for the tab! :D

guest
You may want to rate the tab now too:
select rating
Wanna post a correction for this tab? Suggest correction