Oops, an error
Loading. Please wait.

Put The City To The Sword bass

157 views 1 this week
no commentswrite comment
1 2 3 4 5
3 more votes to show rating
add to favorites
×
Save as Personal and add changes to this tab that will be seen only by you. Learn more ›
×
You can save this tab as Personal to edit and correct it or add notes. All changes will be seen only by you. Learn more »
launch autoscroll
font size
0
reset
guitar tuner
edit
Autoscroll
slow
fast
+/-
esc
set tempo
stop
+++++++++++++++++++++++++++++++++++++++++++++++
|Here I Come Falling-Put The City To The Sword|
+++++++++++++++++++++++++++++++++++++++++++++++

Tuning: Drop D (DADG)
Album: Oh, Grave Where Is Thy Victory

This is my first tab! Very easy but good!!! I'm only 14 so plez don't be mean! 
Plez comment and Rate!!!!!!!!!!!!! 

Put The City To The Sword

                  After Guitars play
G|----------------|-----------------------|------------------|
D|----------------|-----------------------|------------------|
A|----------------|-----------------------|------------------|
D|----------------|-12\--0-00-0-0-0-0-0-0-|-8-88-8-8-8-8-8-8-|

|------------------|------------------|--------------------|
|------------------|------------------|--------------------|
|------------------|------------------|--------------------|
|-0-00-0-0-0-0-0-0-|-7-77-7-7-7-7-12\-|-0-00-0-0-0-0-0-0-0-|

|------------------|------------------|------------------|
|------------------|------------------|------------------|
|------------------|------------------|------------------|
|-8-88-8-8-8-8-8-8-|-0-00-0-0-0-0-0-0-|-7-77-7-7-7-7-7-7-|

|----------------------------------------------|
|----------------------------------------------|
|----------------------------------------------|
|-0-8-7-0-3-5/12\-000--000--000--000--000--000-|

|----------------------------------------------|
|----------------------------------------------|
|----------------------------------------------|
|-0-8-7-0-3-5/12\-000--000--000--000--000--000-|

|------------------------------------------|
|------------------------------------------|
|------------------------------------------|
|-0-8-7-0-3-5/12\-000--000-000-000-000-000-|

|------------------------------------------|------------------|
|------------------------------------------|------------------|
|------------------------------------------|------------------|
|-0-8-7-0-3-5/12\-000--000-000-000-000-000-|-0-8-7-0-3-5-/12\-|

Chorus
|-----------------|-----------------|-------------------------|
|-----------------|-----------------|-------------------------|
|-----------------|-----------------|-------------------------|
|-0-0-0-0-0-0-0-0-|-3-3-3-3-3-3-3-3-|-10-10-10-10-10-10-10-10-|

|-----------------|-----------------|-----------------|-----------------|
|-----------------|-----------------|-----------------|-----------------|
|-----------------|-----------------|-----------------|-----------------|
|-5-5-5-5-5-5-5-5-|-0-8-7-0-3-5/12\-|-0-0-0-0-0-0-0-0-|-3-3-3-3-3-3-3-3-|

|-------------------------|-----------------|-----------------|
|-------------------------|-----------------|-----------------|
|-------------------------|-----------------|-----------------|
|-10-10-10-10-10-10-10-10-|-5-5-5-5-5-5-5-5-|-0-8-7-0-3-5/12\-|

|-----------------|---------------------|-------------------------|
|-----------------|---------------------|-------------------------|
|-----------------|---------------------|-------------------------|
|-3-3-3-3-3-3-3-3-|-0-0-0-0-8-8-8-5-5-5-|-10-10-10-10-10-10-10-10-|

|-----------------------------|-----------------|---------------------|
|-----------------------------|-----------------|---------------------|
|-5555-7777-8888-9999-888-777-|-----------------|---------------------|
|-----------------------------|-3-3-3-3-3-3-3-3-|-0-0-0-0-8-8-8-5-5-5-|

|-------------------------|-----------------------------|
|-------------------------|-----------------------------|
|-------------------------|-5555-7777-8888-9999-888-777-|
|-10-10-10-10-10-10-10-10-|-----------------------------|

|-----------------|--------------------|--------------------|
|-----------------|--------------------|--------------------|
|-----------------|--------------------|--------------------|
|-----------------|-0-0-0-0----0-0-0-0-|-0-0-0-0----0-0-0-0-|

|--------------------|--------------------|
|--------------------|--------------------|
|--------------------|--------------------|
|-0-0-0-0----0-0-0-0-|-0-0-0-0----0-0-0-0-|

Slower this time through
|------------------------------------------|
|------------------------------------------|
|------------------------------------------|
|-0-0-0-0----0-0-0-0----0-0-0-0----0-0-0-0-|

|------------------------------------------|
|------------------------------------------|
|------------------------------------------|
|-0-0-0-0----0-0-0-0----0-0-0-0----0-0-0-0-|

|----------------------------------------------|
|----------------------------------------------|
|----------------------------------------------|
|-5----8----0-0-0-0--0---5----8----9-9-9-9--9--|

|----------------|-----------------------------------|
|----------------|-----------------------------------|
|----------------|-4-4-4-4--4-4-4-4--4-4-4-4---------|
|----------------|---------------------------3-3-3-3-|

|-----------------------------------|
|-----------------------------------|
|-4-4-4-4--4-4-4-4--4-4-4-4---------|
|---------------------------3-3-3-3-|

|---------------------------------|---------------------------------|
|---------------------------------|---------------------------------|
|---------------------------------|---------------------------------|
|-7-7-7-7-7-7-7-7-7-7-7-7-7-7-7-7-|-9-9-9-9-9-9-9-9-9-9-9-9-9-9-9-9-|

|-------------------------------------------------------------------|
|-------------------------------------------------------------------|
|-------------------------------------------------------------------|
|-10-10-10-10-10-10-10-10-10-10-10-10-1010-101010-101010-101010--10-|

|---------------------------------|---------------------------------|
|---------------------------------|---------------------------------|
|---------------------------------|---------------------------------|
|-7-7-7-7-7-7-7-7-7-7-7-7-7-7-7-7-|-5-5-5-5-5-5-5-5-5-5-5-5-5-5-5-5-|

|------------------------------------------------------------------------|
|-----------------------------------2-2-2-2-2-2-2-2--2-2-2-2-2-2-2-2-2-2-|
|------------------------------------------------------------------------|
|-3-3-3-3-3-3-3-3--3-3-3-3-3-3-3-3---------------------------------------|

|-----------------|-----------------------------------|
|-----------------|-----------------------------------|
|-----------------|-4-4-4-4--4-4-4-4--4-4-4-4---------|
|-----------------|---------------------------3-3-3-3-|

|-----------------------------------|-----------------------------------|
|-----------------------------------|-----------------------------------|
|-4-4-4-4--4-4-4-4--4-4-4-4---------|-4-4-4-4--4-4-4-4--4-4-4-4---------|
|---------------------------3-3-3-3-|---------------------------3-3-3-3-|

|-------------------------------------------------------|
|-------------------------------------------------------|
|-4-4-4-4--4-4-4-4--4-4-4-4-----------------------------|
|---------------------------3-3-3-3-0-------------------|

Lyrics: Put The City To the Sword
We'll strike this city down,
this place is buied in murder,
sway,sway my darling sway,
let's dance tonight,

it's been so long,
since i've seen the sun rise up over me,
i hear the sirens all around,
this is an emergency,

this city's filled with ghosts,
and these streets won't lead you home,
so keep dancing sweetheart,
know my love won't lead you home,
the sky is calling oyt my name,
but i don't know if these wings will hold,

our weary eyes failed,
from towers as we watched,
and the world crumbles,
in your bleeding hands,
this could be the death of me,
this place is painted in our murder,

swing down sweet chariot, oh
oh lord, take me home,

we'll fill the air with songs of praise,
and make it back here someday,
i'll scream your name out as we leave,

please save this ship,
Lord save this ship from sinking.
__________________________________________

That's it!!!
Please Comment and Rate!!!!!!!!
Enjoy!!!!!!!!!!




            
            
Suggest correction
Creating personal tab
Creating personal tab
You can edit any tab online and save it as your Personal.

You can edit, replace or remove any tab part or add personal notes – all changes will be seen only by you.

Personal tabs can be accessed anytime from any device, even offline.
Learn more »
Give kudos to tab author, rate the tab!
1 2 3 4 5
comments
print report bad tab
guest
You may want to rate the tab now too:
select rating
Wanna post a correction for this tab? Suggest correction