Oops, an error
Loading. Please wait.

Las Luces Se Apagan tab

37 views 1 this week
no commentswrite comment
1 2 3 4 5
3 more votes to show rating
add to favorites
×
Save as Personal and add changes to this tab that will be seen only by you. Learn more ›
×
You can save this tab as Personal to edit and correct it or add notes. All changes will be seen only by you. Learn more »
launch autoscroll
font size
0
reset
how to read this tab
guitar tuner
edit
Autoscroll
slow
fast
+/-
esc
set tempo
stop
Completita!! Vamos hereford carajo!!

N.C.

Las luces se apagan,

N.C.

y las copas ya están vacias

N.C.

de promesas, de rencores, de olvidos

                           Tus brazos golpeados

e|-------------4-------------7---------------------------4-------------|
B|-------------5-------------7-------------2-------------4-------------|
G|-------------4-------------8-------------3-------------5-------------|
D|-------------6-------------9-------------4-------------4-------------|
A|-------------4-------------7-------------X-------------6-------------|
E|-----------------------------------------4-------------4-------------|

                      Y tu rostro cansado de buscar

e|---------------------------------------------------------------------|
B|-------------7-------------9-------------5-------------5-------------|
G|-------------8-------------9-------------6-------------5-------------|
D|-------------9-------------9-------------6-------------4-------------|
A|-------------X-------------X-------------X-------------X-------------|
E|-------------9-------------7-------------5-------------4-------------|

                      oídos que escuchen tus penas

e|-----------------4----------------2----------------2-----------------|
B|-----------------5----------------4----------------2-----------------|
G|-----------------4----------------4----------------3-----------------|
D|-----------------6----------------4----------------4-----------------|
A|-----------------4----------------2----------------4-----------------|
E|---------------------------------------------------2-----------------|

                            La luna que llora

e|-------------4-------------7---------------------------4-------------|
B|-------------5-------------7-------------2-------------4-------------|
G|-------------4-------------8-------------3-------------5-------------|
D|-------------6-------------9-------------4-------------4-------------|
A|-------------4-------------7-------------X-------------6-------------|
E|-----------------------------------------4-------------4-------------|

                    y los rios que fluyen sin agua

e|---------------------------------------------------------------------|
B|-------------7-------------9-------------5-------------5-------------|
G|-------------8-------------9-------------6-------------5-------------|
D|-------------9-------------9-------------6-------------4-------------|
A|-------------X-------------X-------------X-------------X-------------|
E|-------------9-------------7-------------5-------------4-------------|

                  Cuando olvidas que existo, que existo

e|-----------------4----------------2----------------2-----------------|
B|-----------------5----------------4----------------2-----------------|
G|-----------------4----------------4----------------3-----------------|
D|-----------------6----------------4----------------4-----------------|
A|-----------------4----------------2----------------4-----------------|
E|---------------------------------------------------2-----------------|

                              Y te vas...

e|-------------------------------O-------------------------------------|
B|-------------------------------O-------------------------------------|
G|-------------------------------1-------------------------------------|
D|-------------------------------4-------------------------------------|
A|-------------------------------2-------------------------------------|
E|-------------------------------O-------------------------------------|

                          Y no estas y te vas

e|---------------O----------------O------------------------O-----------|
B|---------------3----------------2----------------------O-------------|
G|---------------2----------------O--------------------1---------------|
D|---------------O----------------2------------------4-----------------|
A|--------------------------------O----------------2-------------------|
E|-----------------------------------------------O---------------------|

                             Y no estas

e|-----------------------O------------------O--------------------------|
B|-----------------------2------------------2--------------------------|
G|-----------------------3------------------O--------------------------|
D|------------------------------------------2--------------------------|
A|------------------------------------------O--------------------------|
E|---------------------------------------------------------------------|

                          Palabras que vuelan

e|-------------4-------------7-------------4-------------4-------------|
B|-------------5-------------7-------------2-------------4-------------|
G|-------------4-------------8-------------3-------------5-------------|
D|-------------6-------------9-------------4-------------4-------------|
A|-------------4-------------7-------------X-------------6-------------|
E|-----------------------------------------4-------------4-------------|

                      Y en mis labios marcados están

e|---------------------------------------------------------------------|
B|-------------7-------------9-------------5-------------5-------------|
G|-------------8-------------9-------------6-------------5-------------|
D|-------------9-------------9-------------6-------------4-------------|
A|-------------X-------------X-------------X-------------X-------------|
E|-------------9-------------7-------------5-------------4-------------|

                      tus besos, tu rostro, tu cuerpo

e|-----------------4----------------2----------------2-----------------|
B|-----------------5----------------4----------------2-----------------|
G|-----------------4----------------4----------------3-----------------|
D|-----------------6----------------4----------------4-----------------|
A|-----------------4----------------2----------------4-----------------|
E|---------------------------------------------------2-----------------|

                            Mi mente se duerme

e|-------------4-------------7---------------------------4-------------|
B|-------------5-------------7-------------2-------------4-------------|
G|-------------4-------------8-------------3-------------5-------------|
D|-------------6-------------9-------------4-------------4-------------|
A|-------------4-------------7-------------X-------------6-------------|
E|-----------------------------------------4-------------4-------------|

                    y las lagrimas inundan mis ojos

e|---------------------------------------------------------------------|
B|-------------7-------------9-------------5-------------5-------------|
G|-------------8-------------9-------------6-------------5-------------|
D|-------------9-------------9-------------6-------------4-------------|
A|-------------X-------------X-------------X-------------X-------------|
E|-------------9-------------7-------------5-------------4-------------|

                   Y duele saber que te has ido

e|-----------------4----------------2----------------2-----------------|
B|-----------------5----------------4----------------2-----------------|
G|-----------------4----------------4----------------3-----------------|
D|-----------------6----------------4----------------4-----------------|
A|-----------------4----------------2----------------4-----------------|
E|---------------------------------------------------2-----------------|

                              Y te vas...

e|-------------------------------O-------------------------------------|
B|-------------------------------O-------------------------------------|
G|-------------------------------1-------------------------------------|
D|-------------------------------4-------------------------------------|
A|-------------------------------2-------------------------------------|
E|-------------------------------O-------------------------------------|

                          Y no estas y te vas

e|---------------O----------------O------------------------O-----------|
B|---------------3----------------2----------------------O-------------|
G|---------------2----------------O--------------------1---------------|
D|---------------O----------------2------------------4-----------------|
A|--------------------------------O----------------2-------------------|
E|-----------------------------------------------O---------------------|

                          Y no estas y te vas

e|---------------O----------------O------------------------O-----------|
B|---------------3----------------2----------------------O-------------|
G|---------------2----------------O--------------------1---------------|
D|---------------O----------------2------------------4-----------------|
A|--------------------------------O----------------2-------------------|
E|-----------------------------------------------O---------------------|

                          Y no estas y te vas

e|---------------O----------------O------------------------O-----------|
B|---------------3----------------2----------------------O-------------|
G|---------------2----------------O--------------------1---------------|
D|---------------O----------------2------------------4-----------------|
A|--------------------------------O----------------2-------------------|
E|-----------------------------------------------O---------------------|

                             Y no estas

e|-----------------------O------------------O--------------------------|
B|-----------------------2------------------2--------------------------|
G|-----------------------3------------------O--------------------------|
D|------------------------------------------2--------------------------|
A|------------------------------------------O--------------------------|
E|---------------------------------------------------------------------|

Solo:

2ª Guitarra
e|---------------------------4---------------------------4-------------|
B|-------------2-------------4-------------2-------------4-------------|
G|-------------3-------------5-------------3-------------5-------------|
D|-------------4-------------4-------------4-------------4-------------|
A|-------------X-------------6-------------X-------------6-------------|
E|-------------4-------------4-------------4-------------4-------------|

1ª Guitarra
|----------------------------------------------------------------6/8---|
|-------9-12(14)-11(13)--9---11(12)-9----9------------------9----------|
|--8/1O--------------------1O---------1O--1O(11)--8-1O---------6--(8)--|
|------------------------------------------------------9h1O------------|
|----------------------------------------------------------------------|
|----------------------------------------------------------------------|

2ª Guitarra
e|---------------------------4---------------------------4-------------|
B|-------------2-------------4-------------2-------------4-------------|
G|-------------3-------------5-------------3-------------5-------------|
D|-------------4-------------4-------------4-------------4-------------|
A|-------------X-------------6-------------X-------------6-------------|
E|-------------4-------------4-------------4-------------4-------------|

1ª Guitarra
|-----16/14-14-13-11-13-14-13(14)-11-13--------------------------------|
|16/18---------------------------------11(13)-11-9--9------------------|
|-------------------------------------------------1O-10(11)-8-1O-------|
|---------------------------------------------------------------9h1O-6-|
|----------------------------------------------------------------------|
|----------------------------------------------------------------------|

                           MI cama desierta

e|-------------4-------------7---------------------------4-------------|
B|-------------5-------------7-------------2-------------4-------------|
G|-------------4-------------8-------------3-------------5-------------|
D|-------------6-------------9-------------4-------------4-------------|
A|-------------4-------------7-------------X-------------6-------------|
E|-----------------------------------------4-------------4-------------|

                     Sin nubes que quieran llorar

e|---------------------------------------------------------------------|
B|-------------7-------------9-------------5-------------5-------------|
G|-------------8-------------9-------------6-------------5-------------|
D|-------------9-------------9-------------6-------------4-------------|
A|-------------X-------------X-------------X---------------------------|
E|-------------9-------------7-------------5-------------4-------------|

                      MI destino, incierto destino

e|-----------------4----------------2----------------2-----------------|
B|-----------------5----------------4----------------2-----------------|
G|-----------------4----------------4----------------3-----------------|
D|-----------------6----------------4----------------4-----------------|
A|-----------------4----------------2----------------4-----------------|
E|---------------------------------------------------2-----------------|

                             Y te vas...

e|-------------------------------O-------------------------------------|
B|-------------------------------O-------------------------------------|
G|-------------------------------1-------------------------------------|
D|-------------------------------4-------------------------------------|
A|-------------------------------2-------------------------------------|
E|-------------------------------O-------------------------------------|

                          Y no estas y te vas

e|---------------O----------------O------------------------O-----------|
B|---------------3----------------2----------------------O-------------|
G|---------------2----------------O--------------------1---------------|
D|---------------O----------------2------------------4-----------------|
A|--------------------------------O----------------2-------------------|
E|-----------------------------------------------O---------------------|

                          Y no estas y te vas

e|---------------O----------------O------------------------O-----------|
B|---------------3----------------2----------------------O-------------|
G|---------------2----------------O--------------------1---------------|
D|---------------O----------------2------------------4-----------------|
A|--------------------------------O----------------2-------------------|
E|-----------------------------------------------O---------------------|

                          Y no estas y te vas

e|---------------O----------------O------------------------O-----------|
B|---------------3----------------2----------------------O-------------|
G|---------------2----------------O--------------------1---------------|
D|---------------O----------------2------------------4-----------------|
A|--------------------------------O----------------2-------------------|
E|-----------------------------------------------O---------------------|

                           Y no estas y te vas

e|---------------O----------------O------------------------O-----------|
B|---------------3----------------2----------------------O-------------|
G|---------------2----------------O--------------------1---------------|
D|---------------O----------------2------------------4-----------------|
A|--------------------------------O----------------2-------------------|
E|-----------------------------------------------O---------------------|

                           Y no estas y te vas

e|---------------O----------------O------------------------O-----------|
B|---------------3----------------2----------------------O-------------|
G|---------------2----------------O--------------------1---------------|
D|---------------O----------------2------------------4-----------------|
A|--------------------------------O----------------2-------------------|
E|-----------------------------------------------O---------------------|


                            Y no estas

e|-----------------------O------------------O--------------------------|
B|-----------------------2------------------2--------------------------|
G|-----------------------3------------------O--------------------------|
D|------------------------------------------2--------------------------|
A|------------------------------------------O--------------------------|
E|---------------------------------------------------------------------|

Simbolos usados en esta tablatura:

5/7               Slide up desde el traste 5 al 7
7\5               Slide down desde el traste 7 al 5
/5                Slide up desde 'algún traste' al 5
5\                Slide down desde el 5 a 'algún traste'
5(7)              Bend desde el traste 5 al 7
5(7)5             Bend desde el trate 5 al 7 y volver al 5
5h7               Hammer del traste 5 al 7
7p5               Pull off del traste 7 al 5
~~~               Vibrato de mano izquierda
X                 Nota tapada que no suena
N.C.              LA guitarra no toca

            
            
Suggest correction
Creating personal tab
Creating personal tab
You can edit any tab online and save it as your Personal.

You can edit, replace or remove any tab part or add personal notes – all changes will be seen only by you.

Personal tabs can be accessed anytime from any device, even offline.
Learn more »
Give kudos to tab author, rate the tab!
1 2 3 4 5
comments
print report bad tab
guest
Wanna post a correction for this tab? Suggest correction