Oops, an error
Loading. Please wait.

Saturday Night tab

version 1
version 1

Whole song

Interactive

46,683 views 63 this week
3 commentsread comments
1 2 3 4 5
x 13
add to favorites
×
Save as Personal and add changes to this tab that will be seen only by you. Learn more ›
×
You can save this tab as Personal to edit and correct it or add notes. All changes will be seen only by you. Learn more »
launch autoscroll
font size
0
reset
how to read this tab
guitar tuner
edit
Autoscroll
slow
fast
+/-
esc
set tempo
stop
HERMAN BROOD Saturday Night (from Slipr:tsz, 1978)


Mainriff (bass D pedal)

  D5/A  F5/C     G5/D  D5/A

E --------------|--------------|
B 3-----6-------|8-----3-------|
G 2-----5-------|7-----2-------|
D --000-----000-|--000-----000-|
A --------------|--------------|
E --------------|--------------|

Mainriff with transition to chorus

E --------------|--------------------|
B 3-----6-------|8-----3-------------|
G 2-----5-------|7-----2-------------|
D --000-----000-|--000---3-2-1-0-----|
A --------------|----------------3-2-|
E --------------|--------------------|

Chorus guitar

  A5    Am7/C    D/F#  A5

E --------------|--------------|
B ------5-------|--------------|
G 2-----5-------|------2-------|
D 2-----5-------|4-----2-------|
A 0---0-0-------|5---0-0-------|
E --------------|--------------|

Chorus bass

G --------------|------------------|
D ------5---4h5-|4-----------------|
A 0---x---------|----x-0-----------|
E --------------|---------0-3--3-5~|

Solo (search out for yourself!, sorry)/basslines:

1 x: E - D - G - D
3 x: D - F - G - D

[Outro]
(bass plays basic notes)

  Dsus2          Csus2          Bm

E --------------|--------------|--------------|--------------|
B ------5-------|------3-------|------3-------|--------------|
G ----7----7----|----5----5----|----4----4----|--------------|
D --7--------7--|--5-----------|--4--------4--|--------------|
A 5-------------|3-------------|2-------------|--------------|
E --------------|--------------|--------------|-6~-5~-3~-1~--|


[Solo]

e ----------|----------------------|--------------------------------------|
b ----------|----------------------|--------------------------------------|
g ----------|----------------------|--------------------------------------|
d -------10-|-12b14-12-10h12-------|--------------------------------------|
a -10h12----|----------------10h12-|-8h10-8----8-------10-8-10p8-10h12p10-|
E ----------|----------------------|--------10---10-10--------------------|

e ------------------------------------------------10----------|
b ---------------------------------------------------13p10----|
g ---------------------------------------10-12b14----------12-|
d ---------------------------------10h12----------------------|
a -12p10s8-10p8----10p8----8s10-12----------------------------|
E --------------10------10------------------------------------|

e ----------10-10----------10-13b15-13-10h13p10----10-|
b -------10-------13p10-------------------------13----|
g -12b14----------------12----------------------------|
d ----------------------------------------------------|
a ----------------------------------------------------|
E ----------------------------------------------------|


e ---------------------------------------------|
b -s15-----15-15-----15-15-----15-15-----15-15-|
g -----s16-------s16-------s16-------s16-------|
d ---------------------------------------------|
a ---------------------------------------------|
E ---------------------------------------------|

e -17b19-17b19-17-15h17p15-13h15p13-13b15-|
b ----------------------------------------|
g ----------------------------------------|
d ----------------------------------------|
a ----------------------------------------|
E ----------------------------------------|

e -13p10----13p10----10-------------------------------------------------|
b -------13-------13----13p10-10-------10-------------------------------|
g -------------------------------12p10----12p10-12p10----12-10h12----10-|
d ----------------------------------------------------12----------12----|
a ----------------------------------------------------------------------|
E ----------------------------------------------------------------------|

e ----------------------|
b ----------------------|
g ----------------------|
d -12-10----------------|
a -------12-11-10-9-----|
E ------------------10\-|

************************************

| h  Hammer-on
| x  Dead note
| ~  Vibrato

************************************

            
            
Suggest correction
Creating personal tab
Creating personal tab
You can edit any tab online and save it as your Personal.

You can edit, replace or remove any tab part or add personal notes – all changes will be seen only by you.

Personal tabs can be accessed anytime from any device, even offline.
Learn more »
comments
print report bad tab
3 comments total.
0 reply
KjellIbanez 10 Mar 12, 2011 07:07 AM

Thank you for this.

Keep this kind music alive!

+1 reply
DannyStuivenbrg 10 Nov 19, 2012 03:34 AM

Too bad you didn't tab the solo... This tab would have been superb otherwise.

0 reply
verantiadesign 14 Mar 02, 2017 03:46 PM, edited at 08:46 pm

I've added a correction for the solo, found it somewhere on a dutch forum can't really remember where. But credits go to that person who figured out the solo. Now we just have to wait until the correction is reviewed and added.

guest
Wanna post a correction for this tab? Suggest correction