Oops, an error
Loading. Please wait.

Si Conocieras El Don De Dios tab

61 views 1 this week
no commentswrite comment
1 2 3 4 5
3 more votes to show rating
add to favorites
×
Save as Personal and add changes to this tab that will be seen only by you. Learn more ›
×
You can save this tab as Personal to edit and correct it or add notes. All changes will be seen only by you. Learn more »
launch autoscroll
font size
0
reset
how to read this tab
guitar tuner
edit
Autoscroll
slow
fast
+/-
esc
set tempo
stop
SI CONOCIERAS EL DON DE DIOS
(Jn 4,10)

e|-------0------------0------------0------------0---------------1------------1------|
B|-1---1---1--------1---1--------0---0--------0---0------1----1---1--------1---1----|
G|---0-------0----0-------0----0-------0----0-------0-------2-------2----2-------2--|
D|----------------------------------------------------------------------------------|
A|-3------------3----------------------------------------3-------------3------------|
E|---------------------------0------------0-----------------------------------------|

e|-------3------------3------------|        **La cancion se toca al estilo de cada quien asi que 
B|-3---3---3--------3---3-----1----|          pueden usar rasgues o arpegiados**.
G|---4-------4----4-------4--------|   x 2  
D|---------------------------------|
A|-5------------5-------------3----|
E|---------------------------------|


DO   MIm  FA  SOL
uh   uh,  uh  uh,


       DO                    MIm                          FA                 SOL
Si conocieras cómo te amo,  si conocieras cómo te amo dejarías de vivir sin amor
DO                            MIm
Si conocieras cómo te amo,  si conocieras cómo te amo
   FA                          SOL
Dejarías de mendigar cualquier amor.
   LAm                SOL          FA        SOL        DO
Si conocieras cómo te amo,  cómo te amo,  serías más feliz.


DO   MIm  FA   SOL
Uh,  uh,  uh,  uh,  

       DO                             MIm
Si conocieras cómo te busco,  si conocieras cómo te busco
 FA                          SOL  
Dejarías que te alcanzara mi voz,
DO                                     MIm
Si conocieras cómo te busco,  si conocieras cómo te busco
  FA                          SOL
Dejarías que te hablara al corazón.


  LAm                  SOL             FA        SOL              DO
Si conocieras cómo te busco, cómo te busco,  escucharías más mi voz.

Hablado con la melodia Lam Sol Fa Sol Do

Si conocieras cómo te sueño, [x2] preguntarías lo que espero de ti.
Si conocieras cómo te sueño, buscaras lo que he pensado para ti.

LAm                              SOL                   FA              SOL             DO
Si conocieras cómo te sueño,  cómo te sueño,  pensarías más en mi.


e|-------0------------0------------0------------0---------------1------------1------|
B|-1---1---1--------1---1--------0---0--------0---0------1----1---1--------1---1----|
G|---0-------0----0-------0----0-------0----0-------0-------2-------2----2-------2--|
D|----------------------------------------------------------------------------------|
A|-3------------3----------------------------------------3-------------3------------|
E|---------------------------0------------0-----------------------------------------|

e|-------3------------3------------|        
B|-3---3---3--------3---3-----1----|          
G|---4-------4----4-------4--------|    
D|---------------------------------|
A|-5------------5-------------3----|
E|---------------------------------|


DO   MIm  FA   SOL
Uh,  uh,  uh,  uh.


Liturgia

Trabajar en el tiempo de adviento, poniendo hincapié en el Señor que viene y 
nos dice: ?Si conocieras cómo te amo,  cómo te busco,  cómo te sueño?

**¿Qué sentimientos ha despertado en ti la canción?, ¿
Qué quisieras conocer más de Dios? , 
¿Has pensado qué sueña el Señor para ti?  
¿Experimentas cómo Dios te busca?**

            
            
Suggest correction
Creating personal tab
Creating personal tab
You can edit any tab online and save it as your Personal.

You can edit, replace or remove any tab part or add personal notes – all changes will be seen only by you.

Personal tabs can be accessed anytime from any device, even offline.
Learn more »
Give kudos to tab author, rate the tab!
1 2 3 4 5
comments
print report bad tab
guest
Wanna post a correction for this tab? Suggest correction