Oops, an error
Loading. Please wait.

Tu Mi Alfarero tab

69 views 1 this week
no commentswrite comment
1 2 3 4 5
3 more votes to show rating
add to favorites
×
Save as Personal and add changes to this tab that will be seen only by you. Learn more ›
×
You can save this tab as Personal to edit and correct it or add notes. All changes will be seen only by you. Learn more »
launch autoscroll
font size
0
reset
how to read this tab
guitar tuner
edit
Autoscroll
slow
fast
+/-
esc
set tempo
stop
TÚ  MI  ALFARERO
(Jr  18,  2-6)


e|----0------0-----------1-----------1--------------------0--------0----|
B|-1--1----1---1-------3---3-------3---3----------------0---0------0----|
G|----2--2-------2---2-------2---2-------2-1----------1-------1----1----|
D|----2------------2-----------0-------------2------2-----------2--2----|
A|-0-------------------------------------------2-------------------2----|
E|-----------------------------------------------0----------------------|

  
LAm                                 REm
Gira que gira,  rueda que rueda,  siento tus manos sobre mi greda,
MI                          LAm             SOL               LAm
Me asombra el pensar que Tu le quieras tu cacharro acaba de caerse,
MI                      LAm             LA7
Acaba de quebrarse, no acaba de encontrarte.


REm               LAm               MI                                  LAm
Tú  mi  alfarero, Tú  mi Alfarero, toma mi barro y vuelve a empezar de nuevo [bis]


e|----0------0-----------1-----------1--------------------0--------0----|
B|-1--1----1---1-------3---3-------3---3----------------0---0------0----|
G|----2--2-------2---2-------2---2-------2-1----------1-------1----1----|
D|----2------------2-----------0-------------2------2-----------2--2----|
A|-0-------------------------------------------2-------------------2----|
E|-----------------------------------------------0----------------------|


e|----0------0-----------1-----------1--------------------0---------------|
B|-1--1----1---1-------3---3-------3---3----------------0---0-----------1-|
G|----2--2-------2---2-------2---2-------2-1----------1-------1-------2---|
D|----2------------2-----------0-------------2------2-----------2---2-----|
A|-0-------------------------------------------2------------------0-------|
E|-----------------------------------------------0------------------------|


LAm                                REm
Gira que gira, rueda que rueda siento tus manos sobre mi greda,
MI                        LAm                 SOL           LAm
Me asombra el pensar que Tú la quieras. ¿Acaso no puedes hacerme de nuevo?
  MI                  LAm       SOL               LAm
¿Acaso no puedes formarme? Tu cacharro acaba de caerse,
  MI                    LAm           LA7
Acaba de quebrarse, no acaba de encontrarte.


REm             LAm                MI                                    LAm  LA7
Tú mi Alfarero, Tú mi Alfarero toma mi barro y vuelve a empezar de nuevo,
REm           LAm       MI        LAm
de nuevo, de nuevo,  Tú mi Alfarero [bis] 


Liturgia

Canto útil para una liturgia penitencial.
Puede ayudar a una buena meditación de la salvación y del pecado en una pascua juvenil, retiro, etc.

            
            
Suggest correction
Creating personal tab
Creating personal tab
You can edit any tab online and save it as your Personal.

You can edit, replace or remove any tab part or add personal notes – all changes will be seen only by you.

Personal tabs can be accessed anytime from any device, even offline.
Learn more »
Give kudos to tab author, rate the tab!
1 2 3 4 5
comments
print report bad tab
guest
Wanna post a correction for this tab? Suggest correction