Oops, an error
Loading. Please wait.

Yo Creo En Tu Resurreccion tab

34 views 1 this week
no commentswrite comment
1 2 3 4 5
3 more votes to show rating
add to favorites
×
Save as Personal and add changes to this tab that will be seen only by you. Learn more ›
×
You can save this tab as Personal to edit and correct it or add notes. All changes will be seen only by you. Learn more »
launch autoscroll
font size
0
reset
how to read this tab
guitar tuner
edit
Autoscroll
slow
fast
+/-
esc
set tempo
stop
YO CREO EN TU RESURRECCIÓN
(Jr 20, 7-9)
 
e|-3-----3-----------------2--------3--------3--0----------------------0----|
B|-3---3---3---1---------3----------3------3------0----------0---------0----|
G|---0-------0---0----------2------------0----------0----------0-------0----|
D|-----------------2----------0--------0--------------2----------2-----2----|
A|-------------------3----------0-2---------------------2----------2---2----|
E|-3-------------------3------------3---------------------0------------0----|


SOL          DO        RE                SOL         MIm           DO
Yo creo en tu resurrección porque puedo amar, puedo reír, puedo abrazar mi mayor      
  RE                 SOL             DO         RE                SOL         MIm
enemigo y mirarlo en Ti.  Yo creo en tu Resurrección porque tengo paz en el corazón,     
                 DO                 RE       Sol/Sol7          DO       RE                
porque puedo entregarme a pesar de todo éste dolor, yo creo en tu resurrección porque
     SOL        MIm                   DO               RE       SOL             DO
soy feliz junto a Ti, porque me amas tanto que hasta moriste por mí, Yo creo en tu 


e|-3-----3-----------------2--------3--------3--0----------------------0----|
B|-3---3---3---1---------3----------3------3------0----------0---------0----|
G|---0-------0---0----------2------------0----------0----------0-------0----|
D|-----------------2----------0--------0--------------2----------2-----2----|
A|-------------------3----------0-2---------------------2----------2---2----|
E|-3-------------------3------------3---------------------0------------0----|
 
         RE              SOL/MI-               DO           RE           SOL
resurrección porque puedo amar, porque tengo tanto, tanto, tanto para entregar.
            LAm         RE      SOL MIm         DO          RE          Sol/Sol 7
Yo creo que Tu Señor vivirás en mí, yo creo que tu, Señor vencerás en mi, yo  
         DO            RE     SOL/MI-     DO            RE      SOL              DO
creo que Tú, Señor, morarás en mi, para siempre, para siempre, Señor. Yo creo en tu 
         RE                SOL               MIm             DO             RE
resurrección porque ni el dolor, ni Propio error, ninguna angustia podrá separarme de tu 


SOL              DO          RE                  SOL          MIm                 DO
amor. Yo creo en tu resurrección porque todo lo puedo con tu amor, porque sé que cuidas 
       RE            Sol/Sol 7      DO          RE               SOL/MI-
de mi vida mejor que yo. Yo Creo en tu resurrección porque puedo amar, porque puedo 
     DO                RE        SOL              DO          RE
entregarme a pesar de todo éste dolor. Yo creo en tu resurrección porque puedo 
SOL/MI-             DO            RE           SOL
Amar, porque tengo tanto, tanto, tanto para entregar.


Liturgia

Este canto es una proclamación de fe muy apta para el Domingo.
 Puede servir para una pascua, con-vivencia etc.

**Yo confieso con mi boca y mi corazon que tu Jesus moriste por 
nosotros y que resucitaste de entre los muertos y subiste al 
cielo y estas sentado a la derecha del Padre y de nuevo vendras 
con gloria para juzgar a vivos y muertos y tu reino no tendra fin**

            
            
Suggest correction
Creating personal tab
Creating personal tab
You can edit any tab online and save it as your Personal.

You can edit, replace or remove any tab part or add personal notes – all changes will be seen only by you.

Personal tabs can be accessed anytime from any device, even offline.
Learn more »
Give kudos to tab author, rate the tab!
1 2 3 4 5
comments
print report bad tab
guest
Wanna post a correction for this tab? Suggest correction