Oops, an error
Loading. Please wait.

A Must To Avoid bass

474 views 1 this week
no commentswrite comment
1 2 3 4 5
1 last vote to show rating
add to favorites
×
Save as Personal and add changes to this tab that will be seen only by you. Learn more ›
×
You can save this tab as Personal to edit and correct it or add notes. All changes will be seen only by you. Learn more »
launch autoscroll
font size
0
reset
guitar tuner
edit
Autoscroll
slow
fast
+/-
esc
set tempo
stop
Author
A Must To Avoid
Herman's Hermits
Written by P.F. Sloan and Steve Barri; released as a single with "The Man 
With The Cigar" as the B-side

Intro:
G|------- ------- ------- -------|------- ------- ------- -------|
D|-------------------------------|-------------------------------|
A|-------------------------------|-------------------------------|
E|7------------------------------|7------------------------------|


Refrain:
G|------- ------- ------- -------|------- ------- ------- -------|
D|-------------------------------|-------------------------------|
A|7-----------7------------------|7-----------7---7-----------8--|
E|----------------5-----------5--|-------------------------------|
  She's           a               must to a - void,


G|------- ------- ------- -------|------- ------- ------- -------|
D|----------------9-------9------|-------------------------------|
A|9-------9----------------------|7-----------7---7-----------7--|
E|-------------------------------|-------------------------------|
          a   complete impos- si- bi- li  -   ty,


G|------- ------- ------- -------|------- ------- ------- -------|
D|----------------7-----------7--|-------------------------------|
A|7-----------7------------------|7-----------7---7-----------7--|
E|-------------------------------|-------------------------------|
  She's           a               must to a - void,       better


G|------- ------- ------- -------|------- ------- ------- -------|
D|----------------9-------9------|----------------9-------9------|
A|9-------9----------------------|9-------9----------------------|
E|-------------------------------|-------------------------------|
  take it from me.                                            You

Verse:
G|------- ------- ------- -------|------- ------- ------- -------|
D|-------------------------------|-------------------------------|
A|7-----------7---5-----------5--|7-----------7---5-------5---6--|
E|-------------------------------|-------------------------------|
  think   a   prize  at      the start,                      but
      she's                              (prize  at  the     start)

G|------- ------- ------- -------|------- ------- ------- -------|
D|-------------------------------|-------------------------------|
A|7-----------7---5-------5------|7-----------7---7-------7------|
E|-------------------------------|-------------------------------|
  take my advice,     play it smart,                          She's
                                         (just    play it     smart)

G|------- ------- ------- -------|------- ------- ------- -------|
D|7-------7-------6-------6------|-------------------------------|
A|-------------------------------|9-----------9---7-------7------|
E|-------------------------------|-------------------------------|
  nothing but     trouble, better cut out on   the double,    be-


G|------- ------- ------- -------|------- ------- ------- -------|
D|-------------------------------|9-------7-------6--------------|
A|----------------9-------9------|------------------------9------|
E|9-----------9------------------|-------------------------------|
  fore she   gets in - to    your heart.

Refrain:
G|------- ------- ------- -------|------- ------- ------- -------|
D|----------------7-------7------|-------------------------------|
A|7-----------7------------------|7-----------7---7-------7---8--|
E|-------------------------------|-------------------------------|
  She's           a               must to a - void,


G|------- ------- ------- -------|------- ------- ------- -------|
D|----------------9-------9------|-------------------------------|
A|9-----------9------------------|7-------7-------7-------7---6--|
E|-------------------------------|-------------------------------|
          a   complete impos- si- bi- li  -   ty,


G|------- ------- ------- -------|------- ------- ------- -------|
D|----------------7-------7------|-------------------------------|
A|7-----------7------------------|7-------7-------7-------7------|
E|-------------------------------|-------------------------------|
  She's           a               must to a - void,       better


G|------- ------- ------- -------|------- ------- ------- -------|
D|----------------9-------9------|----------------9-------9------|
A|9-------9----------------------|9-------9----------------------|
E|-------------------------------|-------------------------------|
  take it from me.                                    When you stare

Verse:
G|------- ------- ------- -------|------- ------- ------- -------|
D|-------------------------------|-------------------------------|
A|7-----------7---5-------5------|7-----------7---5-------5---6--|
E|-------------------------------|-------------------------------|
      in- to  her pretty blue eyes,                   there's no way
                                         (in  -   to  her     eyes)

G|------- ------- ------- -------|------- ------- ------- -------|
D|-------------------------------|-------------------------------|
A|7-------7-------5-------5------|7-------7-------7-------7------|
E|-------------------------------|-------------------------------|
      to see through her  disguise,                           But
                                         (through her dis  -  guise)

G|------- ------- ------- -------|------- ------- ------- -------|
D|7-------7-------6-------6------|-------------------------------|
A|-------------------------------|9-------9-------7-------7------|
E|-------------------------------|-------------------------------|
  don't try   to  love   'cause   quickly     discover        you're
                      her,    you'll

G|------- ------- ------- -------|------- ------- ------- -------|
D|-------------------------------|9-------7-------6--------------|
A|----------------9-------9------|------------------------9------|
E|9-------9----------------------|-------------------------------|
  trapped in the  web  of    her  lies.

Refrain:
G|------- ------- ------- -------|------- ------- ------- -------|
D|----------------7-----------7--|-------------------------------|
A|7-----------7------------------|7-----------7---7-----------8--|
E|-------------------------------|-------------------------------|
  She's           a               must to a - void,


G|------- ------- ------- -------|------- ------- ------- -------|
D|----------------9-------9------|-------------------------------|
A|9-------9----------------------|7-----------7---7-------7---7--|
E|-------------------------------|-------------------------------|
          a   complete impos- si- bi- li  -   ty,


G|------- ------- ------- -------|------- ------- ------- -------|
D|----------------7-----------7--|-------------------------------|
A|7-----------7------------------|7-----------7---7-----------8--|
E|-------------------------------|-------------------------------|
  She's           a               must to a - void,       better


G|------- ------- ------- -------|------- ------- ------- -------|
D|----------------9-------9------|----------------9-------9------|
A|9-------9----------------------|9-------9----------------------|
E|-------------------------------|-------------------------------|
  take it from me.                                            Her

Verse:
G|------- ------- ------- -------|------- ------- ------- -------|
D|-------------------------------|-------------------------------|
A|7-----------7---5-----------5--|7-----------7---5-----------5--|
E|-------------------------------|-------------------------------|
  lips look invi -  ting, it's true,                  but lots of
                                         (oh,     yes, it's   true)

G|------- ------- ------- -------|------- ------- ------- -------|
D|-------------------------------|-------------------------------|
A|7-------7-------5-------5------|7-------7-------7-------7------|
E|-------------------------------|-------------------------------|
  other guys have felt like   you do,                         She'll
                                         (felt    like you    do)

G|------- ------- ------- -------|------- ------- ------- -------|
D|7-------7-------6-------6------|-------------------------------|
A|-------------------------------|9-------9-------7-------7------|
E|-------------------------------|-------------------------------|
  build up   your hopes,  when you need her   the most,
                      and     

G|------- ------- ------- -------|------- ------- ------- -------|
D|-------------------------------|9-------7-------6--------------|
A|----------------9-------9------|------------------------9------|
E|9-----------9------------------|-------------------------------|
  that's when     say goodbye to  you.
             she'll

G|------- ------- ------- -------|
D|10------8-------7--------------|
A|------------------------10-----|
E|-------------------------------|


Refrain:
G|------- ------- ------- -------|------- ------- ------- -------|
D|----------------8-----------8--|-------------------------------|
A|8-----------8------------------|8-----------8---8-------8---9--|
E|-------------------------------|-------------------------------|
  She's           a               must to a - void,


G|------- ------- ------- -------|------- ------- ------- -------|
D|----------------10------10-----|-------------------------------|
A|10------10---------------------|8-----------8---8-------8---8--|
E|-------------------------------|-------------------------------|
          a   complete impos- si- bi- li  -   ty,


G|------- ------- ------- -------|------- ------- ------- -------|
D|-------------------------------|-------------------------------|
A|8-----------8------------------|8-----------8---8-------8---9--|
E|----------------6-------6---6--|-------------------------------|
  She's           a               must to a - void,       better


G|------- ------- ------- -------|------- -------|
D|----------------10------10-----|---------------|
A|10------10---------------------|10------10-----|
E|-------------------------------|---------------|
  take it from me.

Outro:
G|------- ------- ------- -------|------- ------- ------- -------|
D|10-----------------------------|10-----------------------------|
A|-------------------------------|-------------------------------|
E|-------------------------------|-------------------------------|



G|------- ------- ------- -------|------- ------- ------- -------|
D|-------------------------------|-------------------------------|
A|-------------------------------|10-----------------------------|
E|8------------------------------|-------------------------------|

Please e-mail me for any corrections, or write a comment.

            
            
Suggest correction
Creating personal tab
Creating personal tab
You can edit any tab online and save it as your Personal.

You can edit, replace or remove any tab part or add personal notes – all changes will be seen only by you.

Personal tabs can be accessed anytime from any device, even offline.
Learn more »
Give kudos to tab author, rate the tab!
1 2 3 4 5
comments
print report bad tab
guest
You may want to rate the tab now too:
select rating
Wanna post a correction for this tab? Suggest correction