Oops, an error
Loading. Please wait.

Im Into Something Good bass

version 1
version 1

Whole song

865 views 12 this week
no commentswrite comment
1 2 3 4 5
3 more votes to show rating
add to favorites
×
Save as Personal and add changes to this tab that will be seen only by you. Learn more ›
×
You can save this tab as Personal to edit and correct it or add notes. All changes will be seen only by you. Learn more »
launch autoscroll
font size
0
reset
guitar tuner
edit
Autoscroll
slow
fast
+/-
esc
set tempo
stop
Author
Difficulty
I’m Into Something Good
Original recording by Earl-Jean McCrea from USA. This version by Herman’s 
Hermits reached number 1 in UK 1964. Song writers Goffin-King. Tab by
bass50611. Welcome to my tab. Not perfect but nearer to the original 
than other bass tabs.  Comments at bass254@btinternet.com 

Intro:
G|----------------------------------------
D|------3-3-------3-3-------3-3-------3-3-
A|-3-3-------3-3-------3-3-------3-3------
E|----------------------------------------

Verse 1:
G|---------------------------------------2-5-2----2-5-2--------
D|------3-3-------3-3------3-3---0-1-2-3--------3--------2-5-2-
A|-3-3-------3-3-------3-3------3-----------------------3------
E|-------------------------------------------------------------

G|------------7-4------2-5-2-----------------
D|--2-5-2---5----5---3-----------3-3-----3-3-
A|-3-------------------------3-3-----3-3-----
E|-------------------------------------------

Repeat Verse 1:

Middle 8:
G|------------------------------------------------
D|---5-3----5-3--------3-3---2-5-2---5-3-----5-3--
A|------5------5---3-3------3-----------5-------5-
E|-3------3------------------------3-------3------

G|---7-4----7-----------------
D|------7-----5-5-5-5-----5-5-
A|-5------5-----------5-5-----
E|----------------------------

Verse 3:
G|---------------------------------------2-5-2----2-5-2--------
D|------3-3-------3-3------3-3---0-1-2-3--------3--------2-5-2-
A|-3-3-------3-3-------3-3------3-----------------------3------
E|-------------------------------------------------------------

G|-----------7-4------2-5-2----------------------------------
D|--2-5-2---5---5---3------------3-3-----3-3-----3-3-----3-3-
A|-3-------------------------3-3-----3-3-----3-3-----3-3-----
E|-----------------------------------------------------------

Solo:
G|-----------------------------------------------------------------
D|-------------------5-3-----5-3--------3-3---2-5-2---5-3-----5-3--
A|--2-5-2---2-5-2-------5-------5---3-3------3-----------5-------5-
E|-3-------3-------3-------3------------------------3-------3------

G|---7-4----------
D|------7-----5-5-
A|-5------5-5-----
E|----------------

Verse 4:
G|---------------------------------------2-5-2----2-5-2--------
D|------3-3-------3-3------3-3---0-1-2-3--------3--------2-5-2-
A|-3-3-------3-3-------3-3------3-----------------------3------
E|-------------------------------------------------------------

G|-----------7-4-------2-5-2--------------------7-4--------2-5-2---------
D|--2-5-2---5---5---3------------3-3-----3-3---5----5----3-----------3-3-
A|-3-------------------------3-3-----3-3-------------------------3-3-----
E|-----------------------------------------------------------------------

Outro:                                                (Repeat To Fade/End
G|------------7-4-------2-5-2--------------------7-4--------2-5-2---------
D|-----3-3---5---5---3------------3-3-----3-3---5----5----3-----------3-3-
A|-3-3------------------------3-3-----3-3-------------------------3-3-----
E|------------------------------------------------------------------------


            
            
Suggest correction
Creating personal tab
Creating personal tab
You can edit any tab online and save it as your Personal.

You can edit, replace or remove any tab part or add personal notes – all changes will be seen only by you.

Personal tabs can be accessed anytime from any device, even offline.
Learn more »
Give kudos to tab author, rate the tab!
1 2 3 4 5
comments
print report bad tab
guest
You may want to rate the tab now too:
select rating
Wanna post a correction for this tab? Suggest correction