Oops, an error
Loading. Please wait.

The End Of The World bass

350 views 1 this week
no commentswrite comment
1 2 3 4 5
2 more votes to show rating
add to favorites
×
Save as Personal and add changes to this tab that will be seen only by you. Learn more ›
×
You can save this tab as Personal to edit and correct it or add notes. All changes will be seen only by you. Learn more »
launch autoscroll
font size
0
reset
guitar tuner
edit
Autoscroll
slow
fast
+/-
esc
set tempo
stop
Author
The End Of The World
Herman's Hermits
Written by Sylvia Dee and Arthur Kent; released as the B-side to "I'm Henry 
The VIII I Am", and on the album "Herman's Hermits".

6/8 time

Intro:
G|----------- -----------|----------- -----------|----------- -----------|
D|-----------------------|-----------------------|-----------------------|
A|----------------0---1--|3-------------------4--|5---------------5---4--|
E|1----------------------|-----------------------|-----------------------|



G|----------- -----------|
D|----------------0---2--|
A|3-----------3----------|
E|-----------------------|


Verse:
G|----------- -----------|----------- -----------|----------- -----------|
D|3-------------------2--|3----------------------|-----------------------|
A|----------------3------|----------------0---2--|3----------------------|
E|-----------------------|-----------------------|-----------------------|
  Why            does the Sun             go on       shinin',
                                                              ooooooooooo

G|----------- -----------|----------- -----------|----------- -----------|
D|-----------------------|-----------------------|-----------------------|
A|3-----------3---3---4--|5-------------------3--|5---------------5------|
E|-----------------------|----------------5------|--------------------8--|
                          Why            does the sea             rush
  ooooooooooooooooooooooooooooooooooooooooooooooooooooooooooooooooooooooo

G|----------- -----------|----------- -----------|----------- -----------|
D|7----------------------|7-----------7---7---6--|5---------------5---5--|
A|-----------------------|-----------------------|-----------------------|
E|-----------------------|-----------------------|-----------------------|
  to  shore?                                      Don't       they
  ooooooooooooooooooooooooooooooooooooo           ooooooooooooooooooooooo

G|----------- -----------|----------- -----------|2---------- --------2--|
D|5---------------0---2--|3---------------3---2--|-----------------------|
A|-----------------------|-----------------------|-----------------------|
E|-----------------------|-----------------------|-----------------------|
  know            it's the        end     of the world,               When
  ooooooooooooooooooooooooooooooooooooooooooooooooooooooooooooo

G|----------- -----------|----------- -----------|----------- -----------|
D|-----------------------|-----------------------|-----------------------|
A|1----------------------|1-----------1---1---2--|3-----------3----------|
E|-----------------------|-----------------------|-----------------------|
      you             don't   love me         any more?
  ooooooooooooooooooooooooooooooooooooooooooooooooooooooooooooooooooooooo

G|----------- -----------|
D|----------------0---2--|
A|3-----------3----------|
E|-----------------------|

  ooooooooooooo
Verse:
G|----------- -----------|----------- -----------|----------- -----------|
D|3-------------------2--|3----------------------|-----------------------|
A|----------------3------|----------------0---2--|3----------------------|
E|-----------------------|-----------------------|-----------------------|
  Why             does my heart           go on           beatin',
                                                              ooooooooooo

G|----------- -----------|----------- -----------|----------- -----------|
D|-----------------------|-----------------------|-----------------------|
A|3-----------3---3---4--|5-------------------3--|5-----------5---5------|
E|-----------------------|----------------5------|--------------------8--|
                          Why             do these eyes           of  mine
  ooooooooooooooooooooooooooooooooooooooooooooooooooooooooooooooooooooooo

G|----------- -----------|----------- -----------|----------- -----------|
D|7----------------------|7-----------7---7---6--|5----------------------|
A|-----------------------|-----------------------|-----------------------|
E|-----------------------|-----------------------|-----------------------|
      cry?                                        Don't       they
  ooooooooooooooooooooooooooooooooooooo           ooooooooooooooooooooooo

G|----------- -----------|----------- -----------|2---------- --------2--|
D|5---------------0---2--|3---------------3---2--|-----------------------|
A|-----------------------|-----------------------|-----------------------|
E|-----------------------|-----------------------|-----------------------|
  know            it's the        end     of the world?               It
  ooooooooooooooooooooooooooooooooooooooooooooooooooooooooooooo

G|3---------- -----------|----------- -----------|----------- -----------|
D|-----------------------|----------------0---2--|3-------3---3---3---3--|
A|----------------1---2--|3-----------3----------|-----------------------|
E|-----------------------|-----------------------|-----------------------|
  en  -   ded    when you said                good -  bye.
  ooooooooooooooooooooooooooooooooooooooooooooooooooooooooooooooooooooooo

G|----------- -----------|
D|3---3---3---3---3---3--|
A|-----------------------|
E|-----------------------|
                      I
  ooooooooooooo
Bridge:
G|----------- -----------|----------- -----------|----------- -----------|
D|-----------------------|----------------0---2--|3-------3---3-------3--|
A|1-------1---1-------1--|1-------1---1----------|-----------------------|
E|-----------------------|-----------------------|-----------------------|
  wake    up  in      the mor  -  ning,   and I       won  -  der


G|----------- -----------|----------- -----------|----------- -----------|
D|3-------3---3----------|-----------------------|----------------0---2--|
A|--------------------5--|3-----------3----------|3-----------3----------|
E|-----------------------|-----------------------|-----------------------|
                      Why eve  -  ry- thing's the same                as it


G|----------- -----------|----------- -----------|----------- -----------|
D|3-------3---3-------3--|3-------3---3---3---3--|-----------------------|
A|-----------------------|-----------------------|-----------------------|
E|-----------------------|-----------------------|5----------------------|
  was,                                    And I   can't           under-


G|----------- -----------|----------- -----------|----------- -----------|
D|-----------------------|-----------------------|-----------------------|
A|-----------------------|5----------------------|-----------------------|
E|-----------------------|-----------------------|-----------------------|
  stand,           no I   can't           under - stand               Why


G|----------- -----------|----------- -----------|----------- -----------|
D|-----------------------|-----------------------|-----------------------|
A|-----------------------|-----------------------|3----------------------|
E|3----------------------|3----------------------|-----------------------|
  life               goes on      the way     it  does.


G|----------- -----------|
D|----------------0---2--|
A|-----------------------|
E|-----------------------|


Verse:
G|----------- -----------|----------- -----------|----------- -----------|
D|3-------------------2--|3----------------------|-----------------------|
A|----------------3------|----------------0---2--|3-----------3----------|
E|-----------------------|-----------------------|-----------------------|
  Why             do  the birds           go on           singin',
                                                              ooooooooooo

G|----------- -----------|----------- -----------|----------- -----------|
D|-----------------------|-----------------------|-----------------------|
A|3-----------3---3---4--|5-------------------3--|5-----------5---5------|
E|-----------------------|----------------5------|--------------------8--|
                          Why             do  the stars           shine
  ooooooooooooooooooooooooooooooooooooooooooooooooooooooooooooooooooooooo

G|----------- -----------|----------- -----------|----------- -----------|
D|7----------------------|7-----------7---7---6--|5-----------5----------|
A|-----------------------|-----------------------|-----------------------|
E|-----------------------|-----------------------|-----------------------|
      above?                                      Don't       they
  ooooooooooooooooooooooooooooooooooooo           ooooooooooooooooooooooo

G|----------- -----------|----------- -----------|2---------- ----2---2--|
D|5---------------0---2--|3-------------------2--|-----------------------|
A|-----------------------|-----------------------|-----------------------|
E|-----------------------|-----------------------|-----------------------|
  know            it's the        end     of the world?               It
  ooooooooooooooooooooooooooooooooooooooooooooooooooooooooooooo

G|3---------- -----------|----------- -----------|----------- -----------|
D|-----------------------|----------------0---2--|3-----------3-------3--|
A|----------------1---2--|3-----------3----------|-----------------------|
E|-----------------------|-----------------------|-----------------------|
  en  -   ded      when I lost                your    love.
  ooooooooooooooooooooooooooooooooooooooooooooooooooooooooooooooooooooooo

G|----------- -----------|
D|3-------3---3---0---2--|
A|-----------------------|
E|-----------------------|

  ooooooooooooo
Verse (half-solo):
G|----------- -----------|----------- -----------|----------- -----------|
D|3---------------0---2--|3----------------------|-----------------------|
A|-----------------------|----------------0---2--|3----------------------|
E|-----------------------|-----------------------|-----------------------|

                                                              ooooooooooo

G|----------- -----------|----------- -----------|----------- -----------|
D|-----------------------|-----------------------|-----------------------|
A|3-----------3---3---4--|5-------------------3--|5---------------5------|
E|-----------------------|----------------5------|--------------------8--|

  ooooooooooooooooooooooooooooooooooooooooooooooooooooooooooooooooooooooo

G|----------- -----------|----------- -----------|----------- -----------|
D|7----------------------|7-----------7---7---6--|5----------------------|
A|-----------------------|-----------------------|-----------------------|
E|-----------------------|-----------------------|-----------------------|
                                                  Don't       they
  ooooooooooooooooooooooooooooooooooooo           ooooooooooooooooooooooo

G|----------- -----------|----------- -----------|2---------- ----2---2--|
D|5---------------0---2--|3---------------3---2--|-----------------------|
A|-----------------------|-----------------------|-----------------------|
E|-----------------------|-----------------------|-----------------------|
  know            it's the        end     of the world?               It
  ooooooooooooooooooooooooooooooooooooooooooooooooooooooooooooo

G|3-------------------------------------------|
D|--------------------------------------------|
A|--------------------------------------------|
E|--------------------------------------------|
  en    -     ded                     when you


G|--------------------------------------------|
D|--------------------------------------------|
A|3-------------------------------------------|
E|--------------------------------------------|
  said                            good-


G|----------- -----------|----------- -----------|----------- -----------|
D|3---------------3---3--|-----------------------|3-------------------3--|
A|-----------------------|1---------------1---1--|-----------------------|
E|-----------------------|-----------------------|-----------------------|
  bye.
  aaaaaaaaaaaaaaaaaaaaaaaaaaaaaaaaaaaaaaaaaaaaaaaaaaaaaaaaaaaaaaaaaaaaaaa

G|----------- -----------|----------- -----------|----------- -----------|
D|-----------------------|3----------------------|-----------------------|
A|1---------------1---1--|-----------------------|-----------------------|
E|-----------------------|-----------------------|-----------------------|

  aaaaaaaaaaaaaaaaaaaaaaa

Please e-mail me for any corrections, or write a comment.

            
            
Suggest correction
Creating personal tab
Creating personal tab
You can edit any tab online and save it as your Personal.

You can edit, replace or remove any tab part or add personal notes – all changes will be seen only by you.

Personal tabs can be accessed anytime from any device, even offline.
Learn more »
Give kudos to tab author, rate the tab!
1 2 3 4 5
comments
print report bad tab
guest
You may want to rate the tab now too:
select rating
Wanna post a correction for this tab? Suggest correction