Oops, an error
Loading. Please wait.

Cool With You Live tab

by Her's
1,963 views 171 this week
no commentswrite comment
1 2 3 4 5
x 4
add to favorites
×
Save as Personal and add changes to this tab that will be seen only by you. Learn more ›
×
You can save this tab as Personal to edit and correct it or add notes. All changes will be seen only by you. Learn more »
launch autoscroll
font size
0
reset
how to read this tab
guitar tuner
edit
Autoscroll
slow
fast
+/-
esc
set tempo
stop
Her's - Cool With You 
all the chords in the intro,verse and chorus and some of the 2nd verse are a nice little strum followed by
a fast strum to mute  
based off their live perfomance here (2nd track in) https://www.youtube.com/watch?v=7pA0_gOeWCQ 

enjoy!

capo 3rd fret

[Intro] 
e|--------------------------------8----------------10------------------------|
B|-13-------------13--------------10---------------10------------------------|
G|-10-------------9---------------12---------------10------------------------|
D|-12-------------11--------------0----------------12------------------------|
A|-13-------------13---------------------------------------------------------|
E|---------------------------------------------------------------------------|

e|--------------------------------8----------------10------------------------|
B|-13-------------13--------------10---------------10------------------------|
G|-10-------------9---------------12---------------10------------------------|
D|-12-------------11--------------0----------------12------------------------|
A|-13-------------13---------------------------------------------------------|
E|---------------------------------------------------------------------------|

[Verse] 
e|--------------------------------8----------------10------------------------|
B|-13-------------13--------------10---------------10------------------------|
G|-10-------------9---------------12---------------10------------------------|
D|-12-------------11--------------0----------------12------------------------|
A|-13-------------13---------------------------------------------------------|
E|---------------------------------------------------------------------------|

e|--------------------------------8----------------10------------------------|
B|-13-------------13--------------10---------------10------------------------|
G|-10-------------9---------------12---------------10------------------------|
D|-12-------------11--------------0----------------12------------------------|
A|-13-------------13---------------------------------------------------------|
E|---------------------------------------------------------------------------|

e|--------------------------------8----------------10------------------------|
B|-13-------------13--------------10---------------10------------------------|
G|-10-------------9---------------12---------------10------------------------|
D|-12-------------11--------------0----------------12------------------------|
A|-13-------------13---------------------------------------------------------|
E|---------------------------------------------------------------------------|

e|--------------------------------8----------------10------------------------|
B|-13-------------13--------------10---------------10------------------------|
G|-10-------------9---------------12---------------10------------------------|
D|-12-------------11--------------0----------------12------------------------|
A|-13-------------13---------------------------------------------------------|
E|---------------------------------------------------------------------------|
 
[Chorus] 
e|--------------------------------8----------------10------------------------|
B|-13-------------13--------------10---------------10------------------------|
G|-10-------------9---------------12---------------10------------------------|
D|-12-------------11--------------0----------------12------------------------|
A|-13-------------13---------------------------------------------------------|
E|---------------------------------------------------------------------------|

e|--------------------------------8----------------10------------------------|
B|-13-------------13--------------10---------------10------------------------|
G|-10-------------9---------------12---------------10------------------------|
D|-12-------------11--------------0----------------12------------------------|
A|-13-------------13---------------------------------------------------------|
E|---------------------------------------------------------------------------|

[Verse 2] 
e|---10-11/13-10------------------8----------------10------------------------|
B|-13-------------13-13-11-10-----10-13-11-10------10------------------------|
G|-10-------------9---------------12---------------10------------------------|
D|-12-------------11--------------0----------------12------------------------|
A|-13-------------13---------------------------------------------------------|
E|---------------------------------------------------------------------------|

e|---10-11/13-10------------------8--8-6-5-6------10-------------------------|
B|-13-------------13-13-11-10-----10--------------10-------------------------|
G|-10-------------9---------------12--------------10-------------------------|
D|-12-------------11--------------0---------------12-------------------------|
A|-13-------------13---------------------------------------------------------|
E|---------------------------------------------------------------------------|

e|---10-11/13-10------------------8----------------10------------------------|
B|-13-------------13-13-11-10-----10-13-11-10------10------------------------|
G|-10-------------9---------------12---------------10------------------------|
D|-12-------------11--------------0----------------12------------------------|
A|-13-------------13---------------------------------------------------------|
E|---------------------------------------------------------------------------|

e|---10-11/13-10------------------8--8-6-5-6------10-------------------------|
B|-13-------------13-13-11-10-----10--------------10-------------------------|
G|-10-------------9---------------12--------------10-------------------------|
D|-12-------------11--------------0---------------12-------------------------|
A|-13-------------13---------------------------------------------------------|
E|---------------------------------------------------------------------------|



************************************

| /  Slide up

************************************

            
            
Suggest correction
Creating personal tab
Creating personal tab
You can edit any tab online and save it as your Personal.

You can edit, replace or remove any tab part or add personal notes – all changes will be seen only by you.

Personal tabs can be accessed anytime from any device, even offline.
Learn more »
comments
print report bad tab
guest
You may want to rate the tab now too:
select rating
Wanna post a correction for this tab? Suggest correction