Oops, an error
Loading. Please wait.

Otcho tab

version 1
version 1

Whole song

78 views 1 this week
no commentswrite comment
1 2 3 4 5
3 more votes to show rating
add to favorites
×
Save as Personal and add changes to this tab that will be seen only by you. Learn more ›
×
You can save this tab as Personal to edit and correct it or add notes. All changes will be seen only by you. Learn more »
launch autoscroll
font size
0
reset
how to read this tab
guitar tuner
edit
Autoscroll
slow
fast
+/-
esc
set tempo
stop
Intro: Inicia el bajo, después del primer modelo entra la guitarra
Escuchen la canción para que se acomoden en los tiempos
Riff básico
e|----------------------------------------------|
B|----------------------------------------------|
G|---5----5----5--5-----5----5---5----5------5--|
D|----3-3--3-3--3---5-5---5-5--5--6-6---6-6---6-|
A|----------------------------------------------|
E|----------------------------------------------|

e|-----1-1-1------------------------------------|
B|-1--1-----1-3---1----1---1---1---1------------|
G|---------------2--2-----2-2---1s3-2-----------|   (x2)
D|----------------------------------------------|
A|----------------------------------------------|
E|----------------------------------------------|


   Si el mundo se fuera a acabar hoy que harías
e|----------------------------------------------|
B|----------------------------------------------|
G|---5----5----5--5-----5----5---5----5------5--|
D|----3-3--3-3--3---5-5---5-5--5--6-6---6-6---6-|
A|----------------------------------------------|
E|----------------------------------------------|

   Para hacerlo mejor

e|-----1-1-1-------|
B|-1--1-----1-3----|
G|--------------2--|
D|-----------------|
A|-----------------|
E|-----------------|

Lánzate sin pensar, deja todo atrás y nunca mas
e|----------------------------------------------|
B|----------------------------------------------|
G|---5----5----5--5-----5----5---5----5------5--|
D|----3-3--3-3--3---5-5---5-5--5--6-6---6-6---6-|
A|----------------------------------------------|
E|----------------------------------------------|

Nunca mas voltees para atrás
e|-----1-1-1-------|
B|-1--1-----1-3----|
G|--------------2--|
D|-----------------|
A|-----------------|
E|-----------------|


PRECORO Y CORO:

Sigo aquí, estoy listo para ir?

e|----------------------------------------------|
B|----------------------------------------------|
G|--44-44?-4--44-44--4--44-44?-4--44-44---------|  (x2)
D|--44-44?-4--44-44--4--44-44?-4--44-44---------|
A|--22-22--2--22-22--2--22-22--2--22-22---------|
E|----------------------------------------------|

Si es mi último día?
e|----------------------------------------------|
B|----------------------------------------------|
G|--55555555--------------------33333333--------|
D|--55555555-66666666--44444444-33333333--------|
A|--33333333-66666666--44444444-11111111--------|
E|-----------44444444--22222222-----------------|

Si eh de morir?
e|----------------------------------------------|
B|----------------------------------------------|
G|--55555555--------------------33333333--------|
D|--55555555-66666666--44444444-33333333--------|
A|--33333333-66666666--44444444-11111111--------|
E|-----------44444444--22222222-----------------|


PUENTE:

e|------------2----------------2--------|
B|------2-2-2---2--------2-2-2---2------|
G|----3-----------3----3-----------3----|
D|--4----------------4---------------4--|
A|--------------------------------------|
E|--------------------------------------|


e|------------2-----------2----|
B|------2-2-2---2-2-4-4-4----4-|
G|----3------------------------|
D|--4--------------------------|  (x2)
A|-----------------------------|
E|-----------------------------|

Tengo tu invitación?
e|-----------------------------|
B|-----------------------------|
G|-----------------------------|
D|---4--4s5-5-5s6-6-6s7-0------|
A|-----------------------------|
E|-----------------------------|

Deja todo atrás...
e|----------------------------------------------|
B|----------------------------------------------|
G|---5----5----5--5-----5----5---5----5------5--|
D|----3-3--3-3--3---5-5---5-5--5--6-6---6-6---6-|
A|----------------------------------------------|
E|----------------------------------------------|

Si es mi último día?
e|----------------------------------------------|
B|----------------------------------------------|
G|--55555555--------------------33333333--------|
D|--55555555-66666666--44444444-33333333--------|
A|--33333333-66666666--44444444-11111111--------|
E|-----------44444444--22222222-----------------|


Si eh de morir?
e|----------------------------------------------|
B|----------------------------------------------|
G|--55555555--------------------33333333--------|
D|--55555555-66666666--44444444-33333333--------|
A|--33333333-66666666--44444444-11111111--------|
E|-----------44444444--22222222-----------------|


(Parte sin guitarra?)
NO TE PROMETO EL CIELO
TAL VEZ NO LO PUEDA
NO LO PUEDA ALCANZAR

Sigo aquí, estoy listo para ir?

e|----------------------------------------------|
B|----------------------------------------------|
G|--44-44?-4--44-44--4--22-22?-2--22-22---------|  (x2)
D|--44-44?-4--44-44--4--22-22?-2--22-22---------|
A|--22-22--2--22-22--2--00-00--0--00-00---------|
E|----------------------------------------------|

Si es mi último día?
e|----------------------------------------------|
B|----------------------------------------------|
G|--55555555--------------------33333333--------|
D|--55555555-66666666--44444444-33333333--------|
A|--33333333-66666666--44444444-11111111--------|
E|-----------44444444--22222222-----------------|


Si eh de morir?
e|----------------------------------------------|
B|----------------------------------------------|
G|--55555555--------------------33333333--------|
D|--55555555-66666666--44444444-33333333--------|
A|--33333333-66666666--44444444-11111111--------|
E|-----------44444444--22222222-----------------|

Y FIN...

SUERTE... ESTA CANCION ESTA SENCILLA Y FACIL, PERO MUY BUENA...
By... Briann!!

            
            
Suggest correction
Creating personal tab
Creating personal tab
You can edit any tab online and save it as your Personal.

You can edit, replace or remove any tab part or add personal notes – all changes will be seen only by you.

Personal tabs can be accessed anytime from any device, even offline.
Learn more »
Give kudos to tab author, rate the tab!
1 2 3 4 5
comments
print report bad tab
guest
Wanna post a correction for this tab? Suggest correction