Oops, an error
Loading. Please wait.

Wondergirl bass

178 views 3 this week
no commentswrite comment
1 2 3 4 5
2 more votes to show rating
add to favorites
×
Save as Personal and add changes to this tab that will be seen only by you. Learn more ›
×
You can save this tab as Personal to edit and correct it or add notes. All changes will be seen only by you. Learn more »
launch autoscroll
font size
0
reset
guitar tuner
edit
Autoscroll
slow
fast
+/-
esc
set tempo
stop
Author
0:23
G|---------------------------------------------------------------------------------|
D|/14------6-------7-----------------------6-------7-------------------------------|
A|---------------------------------7-----------------------------------------------|
D|---------------------------------------------------------------------------------|
   1 + 2 + 3 + 4 + 1 + 2 + 3 + 4 + 1 + 2 + 3 + 4 + 1 + 2 + 3 + 4 + 1 + 2 + 3 + 4 +

0:35
G|-----------------------------------------------------------------|
D|-----------------------------------------------------------------|
A|-2-2-----2-----------------------5---5---5---------0-0---0---0---|
D|-------------------5-5---5---------------------------------------|
   1 + 2 + 3 + 4 + 1 + 2 + 3 + 4 + 1 + 2 + 3 + 4 + 1 + 2 + 3 + 4 +

G|-----------------------------------------------------------------|
D|-----------------------------------------------------------------|
A|-2---2---2---2-------------------5---5---5---------0-0---0---0---|
D|-------------------5-5---5---------------------------------------|
   1 + 2 + 3 + 4 + 1 + 2 + 3 + 4 + 1 + 2 + 3 + 4 + 1 + 2 + 3 + 4 +

0:44
G|-----------------------------------------------------------------|
D|-----------------------------------------------------------------|
A|-----------------5---5-----------0---0-----------7---7-----------|
D|-5---5-----------------------------------------------------------|
   1 + 2 + 3 + 4 + 1 + 2 + 3 + 4 + 1 + 2 + 3 + 4 + 1 + 2 + 3 + 4 +

G|-----------------------------------------------------------------|
D|-----------------------------------------------------------------|
A|-2---2---2-2---------------------5---5---5-----5---0-0---0-0-0---|
D|-------------------5-5---5---------------------------------------|
   1 + 2 + 3 + 4 + 1 + 2 + 3 + 4 + 1 + 2 + 3 + 4 + 1 + 2 + 3 + 4 +

0:54
G|-----------------------------------------------------------------|
D|-----------------------------------------------------------------|
A|-2---2---2---2-2-----------------5---5---5---5-----0-0---0---0---|
D|-------------------5-5---5---------------------------------------|
   1 + 2 + 3 + 4 + 1 + 2 + 3 + 4 + 1 + 2 + 3 + 4 + 1 + 2 + 3 + 4 +

G|-----------------------------------------------------------------|
D|-----------------------------------------------------------------|
A|-2---2---------2-----------------5---5---------5---0-0---0---0---|
D|-------------------5-5---5---------------------------------------|
   1 + 2 + 3 + 4 + 1 + 2 + 3 + 4 + 1 + 2 + 3 + 4 + 1 + 2 + 3 + 4 +

1:04
G|-----------------------------------------------------------------|
D|-----------------------------------------------------------------|
A|-----------------------------------------------------------------|
D|-9---9-\-----------------------------------------------------7---|
   1 + 2 + 3 + 4 + 1 + 2 + 3 + 4 + 1 + 2 + 3 + 4 + 1 + 2 + 3 + 4 +

G|-----------------------------------------------------------------|
D|-----------------------------------------------------------------|
A|-------------------------------------------------------/-7---9---|
D|-9-\-------------------------------------------------------------|
   1 + 2 + 3 + 4 + 1 + 2 + 3 + 4 + 1 + 2 + 3 + 4 + 1 + 2 + 3 + 4 +

G|-----------------------------------------------------------------|
D|-----------------------------------------------------------------|
A|-----------------------------------------------------------------|
D|-9---9-\---------------------------------------------------------|
   1 + 2 + 3 + 4 + 1 + 2 + 3 + 4 + 1 + 2 + 3 + 4 + 1 + 2 + 3 + 4 +

1:20
G|---------------------------------------------------------------------------------|
D|/14------6---6---7---7---7---7--/14------6---6---7---7---7---7-------------------|
A|---------------------------------------------------------------------------------|
D|---------------------------------------------------------------------------------|
   1 + 2 + 3 + 4 + 1 + 2 + 3 + 4 + 1 + 2 + 3 + 4 + 1 + 2 + 3 + 4 + 1 + 2 + 3 + 4 +

1:32
G|-----------------------------------------------------------------|
D|-----------------------------------------------------------------|
A|-2---2---2-----------------------5---5---5---------0-0---0-------|
D|-------------------5-5---5---------------------------------------|
   1 + 2 + 3 + 4 + 1 + 2 + 3 + 4 + 1 + 2 + 3 + 4 + 1 + 2 + 3 + 4 +

G|-----------------------------------------------------------------|
D|-----------------------------------------------------------------|
A|-2---2---2-----------------------5---5---5---------0-0---0---0---|
D|-------------------5-5---5---------------------------------------|
   1 + 2 + 3 + 4 + 1 + 2 + 3 + 4 + 1 + 2 + 3 + 4 + 1 + 2 + 3 + 4 +

1:42
G|-----------------------------------------------------------------|
D|-----------------------------------------------------------------|
A|-----------------5---5-----------0---0-----------7---7-----------|
D|-5---5-----------------------------------------------------------|
   1 + 2 + 3 + 4 + 1 + 2 + 3 + 4 + 1 + 2 + 3 + 4 + 1 + 2 + 3 + 4 +

G|-----------------------------------------------------------------|
D|-----------------------------------------------------------------|
A|-2---2---2---2-2-----------------5---5---5-----5---0-0---0-0-0---|
D|-------------------5-5---5---------------------------------------|
   1 + 2 + 3 + 4 + 1 + 2 + 3 + 4 + 1 + 2 + 3 + 4 + 1 + 2 + 3 + 4 +

1:52
G|-----------------------------------------------------------------|
D|-------------------------------------------------5---5---5---\---|
A|-7---7---7---7---------------------------------------------------|
D|---------------------4-------5-----------5-----------------------|
   1 + 2 + 3 + 4 + 1 + 2 + 3 + 4 + 1 + 2 + 3 + 4 + 1 + 2 + 3 + 4 +

G|-----------------------------------------------------------------|
D|-----------------------------------------------------------------|
A|-5-------5-------5---5---5---4-----------4-------4---4---2---0---|
D|-----------------------------------------------------------------|
   1 + 2 + 3 + 4 + 1 + 2 + 3 + 4 + 1 + 2 + 3 + 4 + 1 + 2 + 3 + 4 +

2:03
G|-----------------------------------------------------------------|
D|-----------------------------------------------------------------|
A|-----------------------------------------------------------------|
D|-2---2---2---2---2---4-------5-----------5-------5-------5-------|
   1 + 2 + 3 + 4 + 1 + 2 + 3 + 4 + 1 + 2 + 3 + 4 + 1 + 2 + 3 + 4 +

G|-----------------------------------------------------------------|
D|-----------------------------------------------------------------|
A|-0---0---0---0---0---0---0---7-7/12--12--12--12--12--12--12--12--|
D|-----------------------------------------------------------------|
   1 + 2 + 3 + 4 + 1 + 2 + 3 + 4 + 1 + 2 + 3 + 4 + 1 + 2 + 3 + 4 +

2:15
G|-----------------------------------------------------------------|
D|-----------------------------------------------------------------|
A|-14--------------10--------------5-------------12----------------|
D|-----------------------------------------------------------------|
   1 + 2 + 3 + 4 + 1 + 2 + 3 + 4 + 1 + 2 + 3 + 4 + 1 + 2 + 3 + 4 +

G|---------------------------------------------------------------------------------|
D|---------------------------------------------------------------------------------|
A|-14--------------10--------------5-------------0---------------------------------|
D|---------------------------------------------------------------------------------|
   1 + 2 + 3 + 4 + 1 + 2 + 3 + 4 + 1 + 2 + 3 + 4 + 1 + 2 + 3 + 4 + 1 + 2 + 3 + 4 +

2:26
G|-----------------------------------------------------------------|
D|-----------------------------------------------------------------|
A|-----------------5---5-5---------0---0-0-------------------------|
D|-5---5---5-5-------------------------------------2---2-2---------|
   1 + 2 + 3 + 4 + 1 + 2 + 3 + 4 + 1 + 2 + 3 + 4 + 1 + 2 + 3 + 4 +

G|-----------------------------------------------------------------|
D|-----------------------------------------------------------------|
A|-2---2---2-2---------------------5---5---5-5---5-0-0-----0-0-0-0-|
D|---------------------5---5-5-------------------------------------|
   1 + 2 + 3 + 4 + 1 + 2 + 3 + 4 + 1 + 2 + 3 + 4 + 1 + 2 + 3 + 4 +

G|-----------------------------------------------------------------|
D|-----------------------------------------------------------------|
A|-2---2---2-----------------------5---5---5---5-5---0-0---0---0---|
D|-------------------5-5---5---------------------------------------|
   1 + 2 + 3 + 4 + 1 + 2 + 3 + 4 + 1 + 2 + 3 + 4 + 1 + 2 + 3 + 4 +

2:41
G|-----------------------------------------------------------------|
D|-----------------------------------------------------------------|
A|-2---2---4p2---------------------5---5---5h7p5-----0-0---0-------|
D|-------------------5-5---5---------------------------------------|
   1 + 2 + 3 + 4 + 1 + 2 + 3 + 4 + 1 + 2 + 3 + 4 + 1 + 2 + 3 + 4 +

G|-----------------------------------------------------------------|
D|-----------------------------------------------------------------|
A|-----------------5---5-----------0---0-----------7---7-----------|
D|-5---5-----------------------------------------------------------|
   1 + 2 + 3 + 4 + 1 + 2 + 3 + 4 + 1 + 2 + 3 + 4 + 1 + 2 + 3 + 4 +

2:50
G|-----------------------------------------------------------------|
D|-----------------------------------------------------------------|
A|-2---2---2---2-2-----------------5---5---5-----5---0-0---0-0-0---|
D|-------------------5-5---5---------------------------------------|
   1 + 2 + 3 + 4 + 1 + 2 + 3 + 4 + 1 + 2 + 3 + 4 + 1 + 2 + 3 + 4 +

2:56
G|-----------------------------------------------------------------|
D|-------------4---5---5---5---5-----------------------------------|
A|-2---2---2-----------------------5---5---5---5-5---0-0---0---0---|
D|-----------------------------------------------------------------|
   1 + 2 + 3 + 4 + 1 + 2 + 3 + 4 + 1 + 2 + 3 + 4 + 1 + 2 + 3 + 4 +

G|---------------------------------------------------------------------|
D|---------------------------------------------------------------------|
A|-2---2---2-----------------------5---5-----------0---0-----------2---|
D|-------------4-----5-5---5-------------------------------------------|
   1 + 2 + 3 + 4 + 1 + 2 + 3 + 4 + 1 + 2 + 3 + 4 + 1 + 2 + 3 + 4 +
Tabbed by Dave Vucko

            
            
Suggest correction
Creating personal tab
Creating personal tab
You can edit any tab online and save it as your Personal.

You can edit, replace or remove any tab part or add personal notes – all changes will be seen only by you.

Personal tabs can be accessed anytime from any device, even offline.
Learn more »
Give kudos to tab author, rate the tab!
1 2 3 4 5
comments
print report bad tab
guest
You may want to rate the tab now too:
select rating
Wanna post a correction for this tab? Suggest correction