Oops, an error
Loading. Please wait.

Mobius Streak tab

version 2
version 2

Whole song

820 views 33 this week
no commentswrite comment
1 2 3 4 5
x 3
add to favorites
×
Save as Personal and add changes to this tab that will be seen only by you. Learn more ›
×
You can save this tab as Personal to edit and correct it or add notes. All changes will be seen only by you. Learn more »
launch autoscroll
font size
0
reset
how to read this tab
guitar tuner
edit
Autoscroll
slow
fast
+/-
esc
set tempo
stop
Author
Difficulty
About this tab version
Nai Palm's solo acoustic version. Was this info helpful? Yes No
This is the tab for Nai Palms solo acoustic version
https://www.youtube.com/watch?v=wkBb-qiljCw
 
[Intro] 
e|-------------0----------(x4)---------------------------------0------(x4)--------|
B|--------------0-----------------------------------------------0-----------------|
G|---------12----12----------------------------------------10----10---------------|    
D|-------9---------9-------------------------------------7---------7--------------|
A|-----10-----------10---------------------------------8------------8-------------|
E|--12----------------12----------------------------10---------------10-----------|

[Verse 1] 
e|-------------0----------(x4)---------------------------------0------(x4)--------|
B|--------------0-----------------------------------------------0-----------------|
G|---------12----12----------------------------------------10----10---------------|    
D|-------9---------9-------------------------------------7---------7--------------|
A|-----10-----------10---------------------------------8------------8-------------|
E|--12----------------12----------------------------10---------------10-----------|
              See how my harboured mind.....    Is blowing away.....

e|-------------0----------(x4)---------------------------------0------(x2)--------|
B|--------------0-----------------------------------------------0-----------------|
G|---------12----12----------------------------------------10----10---------------|    
D|-------9---------9-------------------------------------7---------7--------------|
A|-----10-----------10---------------------------------8------------8-------------|
E|--12----------------12----------------------------10---------------10-----------|
              He breaks my fall as..               Dawning of...
 
[Chorus] 
e|----------------------------------------------------------------|
B|------5----------5---------7---------5---------7----------------|
G|----5--5-------5--5------7--7------5--5------7--7---------------|
D|---5----5----4-----4----7----7----5----5----7----7--------------|
A|------------5---------------------------------------------------|
E|--5--------------------7---------5---------7--------------------|
   Day       break     welts with a         mobi...
 
e|--------6----(x4)-----------------------------------------|
B|--------8-----------------------8-----(x2)----------------|
G|-----7----7---------------------9-------------------9-----|
D|---8-------8-----------------9----9---------------9-------|
A|--6------------------------10------10----------10---------|
E|--------------------------8-------------------8-----------|
  ...us streak...           righteous for our......


e|--------6----(x4)-----------------------------------------|
B|--------8-----------------------8-----(x2)----------------|
G|-----7----7---------------------9-------------------9-----|
D|---8-------8-----------------9----9---------------9-------|
A|--6------------------------10------10----------10---------|
E|--------------------------8-------------------8-----------|
...magnolia seed surely... ripe in the dark
 
[Verse 2] 
e|-------------0----------(x4)---------------------------------0------(x4)--------|
B|--------------0-----------------------------------------------0-----------------|
G|---------12----12----------------------------------------10----10---------------|    
D|-------9---------9-------------------------------------7---------7--------------|
A|-----10-----------10---------------------------------8------------8-------------|
E|--12----------------12----------------------------10---------------10-----------|
              Origami birds.....         flock from my heart.....

e|-------------0----------(x4)---------------------------------0------(x2)--------|
B|--------------0-----------------------------------------------0-----------------|
G|---------12----12----------------------------------------10----10---------------|    
D|-------9---------9-------------------------------------7---------7--------------|
A|-----10-----------10---------------------------------8------------8-------------|
E|--12----------------12----------------------------10---------------10-----------|
              Burst out in colour.....            Wherever you...
 
[Chorus] 
e|----------------------------------------------------------------|
B|------5----------5---------7---------5---------7----------------|
G|----5--5-------5--5------7--7------5--5------7--7---------------|
D|---5----5----4-----4----7----7----5----5----7----7--------------|
A|------------5---------------------------------------------------|
E|--5--------------------7---------5---------7--------------------|
   are............................................



e|--------6----(x4)-----------------------------------------|
B|--------8-----------------------8-----(x2)----------------|
G|-----7----7---------------------9-------------------9-----|
D|---8-------8-----------------9----9---------------9-------| x2
A|--6------------------------10------10----------10---------|
E|--------------------------8-------------------8-----------|
  heeaa heeaa heeaa


e|--------6---------------------------------------------6-----|
B|--------8-----------------------8-----(x2)------------8-----|
G|-----7----7---------------------9-------------------7---7---|
D|---8-------8-----------------9----9---------------8-------8-|
A|--6------------------------10------10-----------6-----------|
E|--------------------------8---------------------------------|
ooooh....

[Instrumental]
e|-------------0----------(x4)---------------------------------0------(x4)--------|
B|--------------0-----------------------------------------------0-----------------|
G|---------12----12----------------------------------------10----10---------------|    
D|-------9---------9-------------------------------------7---------7--------------|
A|-----10-----------10---------------------------------8------------8-------------|
E|--12----------------12----------------------------10---------------10-----------|
ooooh......

[Verse]
e|-------------0----------(x4)---------------------------------0------(x4)--------|
B|--------------0-----------------------------------------------0-----------------|
G|---------12----12----------------------------------------10----10---------------|    
D|-------9---------9-------------------------------------7---------7--------------|
A|-----10-----------10---------------------------------8------------8-------------|
E|--12----------------12----------------------------10---------------10-----------|
              Ancient sidekick tandem war el...       ...ephant rest in my skin fit this

e|-------------0----------(x4)---------------------------------0------(x4)--------|
B|--------------0-----------------------------------------------0-----------------|
G|---------12----12----------------------------------------10----10---------------|    
D|-------9---------9-------------------------------------7---------7--------------|
A|-----10-----------10---------------------------------8------------8-------------|
E|--12----------------12----------------------------10---------------10-----------|
              Try...... angels                    Try...... angels  

e|-------------0----------(x4)---------------------------------0------(x2)-----0----|
B|--------------0-----------------------------------------------0--------------0----|
G|---------12----12----------------------------------------10----10------------10---|    
D|-------9---------9-------------------------------------7---------7-----------7----|
A|-----10-----------10---------------------------------8------------8----------8----|
E|--12----------------12----------------------------10---------------10--------10---|
              Try...... angels                    Try...... angels  

[Bridge]
(verse 1]
e|---0------------------------------------------------------0----- (x4)-|
B|---0-------------------------------------------------------0----------|
G|---12--------------------------------------------------10---10--------|
D|---9-------------------------------------------------7-------7--------|
A|---10--------------10--9----7-2--------------------8----------8-------|
E|---12--------0-3-7--------------3-0--------------10------------10-----|
          See how my harboured might..........         is blowing away....


e|-------------0----------(x4)---------------------------------0------(x2)--------|
B|--------------0-----------------------------------------------0-----------------|
G|---------12----12----------------------------------------10----10---------------|    
D|-------9---------9-------------------------------------7---------7--------------|
A|-----10-----------10---------------------------------8------------8-------------|
E|--12----------------12----------------------------10---------------10-----------|
              He breaks my fall as..               Dawning of...

[Chorus]
e|----------------------------------------------------------------|
B|------5----------5---------7---------5---------7----------------|
G|----5--5-------5--5------7--7------5--5------7--7---------------|
D|---5----5----4-----4----7----7----5----5----7----7--------------|
A|------------5---------------------------------------------------|
E|--5--------------------7---------5---------7--------------------|
   Day       break     welts with a         mobi...



e|--------6----(x4)-----------------------------------------|
B|--------8-----------------------8-----(x2)----------------|
G|-----7----7---------------------9-------------------9-----|
D|---8-------8-----------------9----9---------------9-------|
A|--6------------------------10------10----------10---------|
E|--------------------------8-------------------8-----------|
  ...us streak...           righteous for our......


e|--------6----(x4)-----------------------------------------|
B|--------8-----------------------8-----(x2)----------------|
G|-----7----7---------------------9-------------------9-----|
D|---8-------8-----------------9----9---------------9-------|
A|--6------------------------10------10----------10---------|
E|--------------------------8-------------------8-----------|
...magnolia seed surely... ripe in the dark


e|--------6----(x4)-----------------------------------------|
B|--------8-----------------------8-----(x2)----------------|
G|-----7----7---------------------9-------------------9-----|
D|---8-------8-----------------9----9---------------9-------| x2
A|--6------------------------10------10----------10---------|
E|--------------------------8-------------------8-----------|
  heeaa heeaa heeaa


e|--------6----------------------------------------|
B|--------8-----------------------8-----(x2)-------|
G|-----7----7---------------------9----------------| x2
D|---8-------8-----------------9----9--------------|
A|--6------------------------10------10------------|
E|--------------------------8----------------------|
ooooh....


e|---6---------------------------|
B|---8----------------8----------|
G|---7----------------9----------| 
D|---8----------------9----------|
A|---6----------------10---------|
E|--------------------8----------|
   ooooh....        oooh 

            
            
Suggest correction
Creating personal tab
Creating personal tab
You can edit any tab online and save it as your Personal.

You can edit, replace or remove any tab part or add personal notes – all changes will be seen only by you.

Personal tabs can be accessed anytime from any device, even offline.
Learn more »
Give kudos to tab author, rate the tab!
1 2 3 4 5
comments
print report bad tab
guest
You may want to rate the tab now too:
select rating
Wanna post a correction for this tab? Suggest correction