Oops, an error
Loading. Please wait.

Time Is Running Out tab

version 1
version 1

Whole song

644 views 1 this week
1 commentread comment
1 2 3 4 5
1 last vote to show rating
add to favorites
×
Save as Personal and add changes to this tab that will be seen only by you. Learn more ›
×
You can save this tab as Personal to edit and correct it or add notes. All changes will be seen only by you. Learn more »
launch autoscroll
font size
0
reset
how to read this tab
guitar tuner
edit
Autoscroll
slow
fast
+/-
esc
set tempo
stop
	Time Is Running Out
	
Artist: High Flight Society
Album: High Flight Society
Year: 2007
Genre: Rock
Info:
 ^ | Bend
 ~ | Vibrato
 / | Slide Onto
 . | Palm Mute
 x | Fret Mute
 N | Natural Harmonic
 * | Pinch Harmonic
 
_____________________________________________________________________________
Guitar 1:
(EbAbDbGbBbeb)

	Intro:

eb|----------------------------------------------------------------|
Bb|--------8--------------8---10~---------8--------------8---10~---|
Gb|------------7~-----------------------------7~-------------------|
Db|-7---10---------7---10----------7---10---------7---10-----------|
Ab|----------------------------------------------------------------|
Eb|----------------------------------------------------------------|
  |
eb|---------------------------------------------------------7-----|
Bb|--------8--------------8---10~-----------------------8-------8-|
Gb|------------7~------------------9^-------------7---9-----------|
Db|-7---10---------7---10-----------------9^----------------------|
Ab|---------------------------------------------------------------|
Eb|---------------------------------------------------------------|
  |
eb|----------------------------------------------------------7-----|
Bb|--------8--------------8---10~---------8--------------8-------8-|
Gb|------------7~-----------------------------7~-------------------|
Db|-7---10---------7---10----------7---10---------7---10-----------|
Ab|----------------------------------------------------------------|
Eb|----------------------------------------------------------------|
  |
eb|---------------------------------------------------------7-----|
Bb|--------8--------------8---10~-----------------------8-------8-|
Gb|------------7~------------------9^-------------7---9-----------|
Db|-7---10---------7---10-----------------9^----------------------|
Ab|---------------------------------------------------------------|
Eb|---------------------------------------------------------------|

	Verse:
	
eb|----------------------------------7-------------8--7-------------|
Bb|-10~------------------------8-10-----10--8--10--------10-8-------|
Gb|----------------------------------------------------------97--9--|
Db|-----------------------------------------------------------------|
Ab|-----------------------------------------------------------------|
Eb|-----------------------------------------------------------------|
  |
eb|----------------------------------7-----------------8--------7---|
Bb|-8~-------------------------------------8-----------------8----8-|
Gb|-------------------------------------------9---------------------|
Db|-----------------------------------------------------------------|
Ab|-----------------------------------------------------------------|
Eb|-----------------------------------------------------------------|
  |
eb|------------------------------------------------------------------|
Bb|-8-----8-----8---8-----8-----8--8-----8-----8---8-----8---8-10-10-|
Gb|-9-----9-----9---9-----9-----9--9-----9-----9---9-----9---9-9--9--|
Db|-7---7-7---7-7---7---7-7---7-7--7---7-7---7-7---7---7-7---7-7--7--|
Ab|------------------------------------------------------------------|
Eb|------------------------------------------------------------------|
  |     .     .         .     .        .     .         .     .       |
  |
eb|----------------------------------------------------------------|
Bb|-8-----8-----8---8-----8-----8--8-----8-----8---8---------8-8-8-|
Gb|-9-----9-----9---9-----9-----9--9-----9-----9---9-----9-9-9-9-9-|
Db|-7---7-7---7-7---7---7-7---7-7--7---7-7---7-7---7---7-7-7-7-7-7-|
Ab|----------------------------------------------------------------|
Eb|----------------------------------------------------------------|
  |     .     .         .     .        .     .                     |
  |
eb|-----------------------------------------------------------------|
Bb|-----------------------------------------------------------------|
Gb|-----------------------------------------------------------------|
Db|-3-3-3-3-3-3-3-3-3-3-3-3-3-3-3-3-5-5-5-5-5-5-5-5-5-5-5-5-5-5-5-5-|
Ab|-3-3-3-3-3-3-3-3-3-3-3-3-3-3-3-3-5-5-5-5-5-5-5-5-5-5-5-5-5-5-5-5-|
Eb|-1-1-1-1-1-1-1-1-1-1-1-1-1-1-1-1-3-3-3-3-3-3-3-3-3-3-3-3-3-3-3-3-|

	Bridge:
	
eb|-----------------------------------------------------------------------------|
Bb|-----------------------------------------------------------------------------|
Gb|---------------------------------9-------------------------------------9-9-9-|
Db|-------7-7-------10-10-9-9-------7-----------7-7-------10-10-9-9-------7-7-7-|
Ab|-7---7-----10-10-----------10-10-------7---7-----10-10-----------10-10-------|
Eb|-----------------------------------------------------------------------------|
  |
eb|-----------------8-8-7-7----------------------------7-7-7-7-7-7----|
Bb|-------10-10-8-8---------8-8-10---------10-10-8-8---8-8-8-8-8-8----|
Gb|-9---9----------------------------9---9-----------9-x-x-x-x-x-x-7/-|
Db|----------------------------------------------------5-5-5-5-5-5----|
Ab|-------------------------------------------------------------------|
Eb|-------------------------------------------------------------------|
  |
eb|-7--------------8-----7------------|
Bb|-------8-----8--------------8------|
Gb|----------9------------------------|
Db|-----------------------------------|
Ab|-----------------------------------|
Eb|-----------------------------------|

	Chorus:
	
eb|-----------------------------------------------------------------|
Bb|-8-8-8-8-8-8-8-8-8-8-8-8-8-8-8-8-8-8-8-8-8-8-8-8-8-8-8-8-8-8-8-8-|
Gb|-x-x-x-x-x-x-x-x-x-x-x-x-x-x-x-x-x-x-x-x-x-x-x-x-x-x-x-x-x-x-x-x-|
Db|-5-5-5-5-5-5-5-5-5-5-5-5-5-5-5-5-5-5-5-5-5-5-5-5-5-5-5-5-5-5-5-5-|
Ab|-----------------------------------------------------------------|
Eb|-----------------------------------------------------------------|
  |
> With Octave Pedal
eb|--------------------------------|
Bb|--------8-------------8---10~---|
Gb|-----------7~-------------------|
Db|-7---10--------7---10-----------|
Ab|--------------------------------|
Eb|--------------------------------|
  |
eb|-7-7-7-7-7-7-7-7-7-7-7-7-7-7-7-7-7-7-7-7-7-7-7-7-7-7-7-7-7-7-7-7-|
Bb|-8-8-8-8-8-8-8-8-8-8-8-8-8-8-8-8-8-8-8-8-8-8-8-8-8-8-8-8-8-8-8-8-|
Gb|-x-x-x-x-x-x-x-x-x-x-x-x-x-x-x-x-x-x-x-x-x-x-x-x-x-x-x-x-x-x-x-x-|
Db|-5-5-5-5-5-5-5-5-5-5-5-5-5-5-5-5-5-5-5-5-5-5-5-5-5-5-5-5-5-5-5-5-|
Ab|-----------------------------------------------------------------|
Eb|-----------------------------------------------------------------|
  |
eb|-----------------------------------------------|
Bb|-----------------11^-11^-11^-11^-12^-12^-12^---|
Gb|-----------------------------------------------|
Db|-5-5-5-5-5-5-5-5-------------------------------|
Ab|-5-5-5-5-5-5-5-5-------------------------------|
Eb|-3-3-3-3-3-3-3-3-------------------------------|

	Verse:
	
eb|-----------------------------------------------------------------|
Bb|-----------------------------------------------------------------|
Gb|-----------------------------------------------------------------|
Db|-7---7-7---7-----7---7-7---7-----9---9-9---9-----9---9-9---9-----|
Ab|-7---7-7---7-----7---7-7---7-----7---7-7---7-----7---7-7---7-----|
Eb|-5---5-5---5-----5---5-5---5-----5---5-5---5-----5---5-5---5-----|
  |
eb|-----------------------------------------------------------------|
Bb|---------------------------------3---3-3---3-----3---3-3---------|
Gb|-5---5-5---5-----5---5-5---5-----5---5-5---5-----5---5-5---------|
Db|-3---3-3---3-----3---3-3---3-----5---5-5---5-----5---5-5---12//--|
Ab|-3---3-3---3-----3---3-3---3-----3---3-3---3-----3---3-3---12//--|
Eb|-1---1-1---1-----1---1-1---1-------------------------------12//--|
  |
eb|----------------------------------------------------------7-----|
Bb|--------8--------------8---10~---------8--------------8-------8-|
Gb|------------7~-----------------------------7~-------------------|
Db|-7---10---------7---10----------7---10---------7---10-----------|
Ab|----------------------------------------------------------------|
Eb|----------------------------------------------------------------|
  |
eb|----------------------------------------------------------------|
Bb|--------8--------------8---10~----------------------------------|
Gb|------------7~------------------9^------------------------------|
Db|-7---10---------7---10-----------------9^-----------------------|
Ab|-----------------------------------------------10^------7-------|
Eb|----------------------------------------------------------------|
  |
eb|------------------------------------------------------------------|
Bb|------------------------------------------------------------------|
Gb|------------------------------------------------------------------|
Db|-3-3-3-3-3-3-3-3-3-3-3-3-3-3-3-3-5-5-5-5-5-5-5-5-5-5-5-5-5-5-12//-|
Ab|-3-3-3-3-3-3-3-3-3-3-3-3-3-3-3-3-5-5-5-5-5-5-5-5-5-5-5-5-5-5-12//-|
Eb|-1-1-1-1-1-1-1-1-1-1-1-1-1-1-1-1-3-3-3-3-3-3-3-3-3-3-3-3-3-3-12//-|

	Bridge:
	
eb|-----------------------------------------------------------------------------|
Bb|-----------------------------------------------------------------------------|
Gb|---------------------------------9-------------------------------------9-9-9-|
Db|-------7-7-------10-10-9-9-------7-----------7-7-------10-10-9-9-------7-7-7-|
Ab|-7---7-----10-10-----------10-10-------7---7-----10-10-----------10-10-------|
Eb|-----------------------------------------------------------------------------|
  |
eb|-----------------8-8-7-7----------------------------7-7-7-7-7-7-7-|
Bb|-------10-10-8-8---------8-8-10---------10-10-8-8---8-8-8-8-8-8-8-|
Gb|-9---9----------------------------9---9-----------9-x-x-x-x-x-x-x-|
Db|----------------------------------------------------5-5-5-5-5-5-5-|
Ab|------------------------------------------------------------------|
Eb|------------------------------------------------------------------|
  |
eb|-7--------------8-----7-------------------------------------------|
Bb|-------8-----8--------------8-----8-8-8-8-8-8-8-8-8-8-8-8-8-8-8-8-|
Gb|----------9-----------------------x-x-x-x-x-x-x-x-x-x-x-x-x-x-x-x-|
Db|----------------------------------5-5-5-5-5-5-5-5-5-5-5-5-5-5-5-5-|
Ab|------------------------------------------------------------------|
Eb|------------------------------------------------------------------|

	Chorus:
	
eb|-----------------------------------------------------------------|
Bb|-8-8-8-8-8-8-8-8-8-8-8-8-8-8-8-8-8-8-8-8-8-8-8-8-8-8-8-8-8-8-8-8-|
Gb|-x-x-x-x-x-x-x-x-x-x-x-x-x-x-x-x-x-x-x-x-x-x-x-x-x-x-x-x-x-x-x-x-|
Db|-5-5-5-5-5-5-5-5-5-5-5-5-5-5-5-5-5-5-5-5-5-5-5-5-5-5-5-5-5-5-5-5-|
Ab|-----------------------------------------------------------------|
Eb|-----------------------------------------------------------------|
  |
> With Octave Pedal
eb|--------------------------------|
Bb|--------8-------------8---10~---|
Gb|-----------7~-------------------|
Db|-7---10--------7---10-----------|
Ab|--------------------------------|
Eb|--------------------------------|
  |
eb|-7-7-7-7-7-7-7-7-7-7-7-7-7-7-7-7-7-7-7-7-7-7-7-7-7-7-7-7-7-7-7-7-|
Bb|-8-8-8-8-8-8-8-8-8-8-8-8-8-8-8-8-8-8-8-8-8-8-8-8-8-8-8-8-8-8-8-8-|
Gb|-x-x-x-x-x-x-x-x-x-x-x-x-x-x-x-x-x-x-x-x-x-x-x-x-x-x-x-x-x-x-x-x-|
Db|-5-5-5-5-5-5-5-5-5-5-5-5-5-5-5-5-5-5-5-5-5-5-5-5-5-5-5-5-5-5-5-5-|
Ab|-----------------------------------------------------------------|
Eb|-----------------------------------------------------------------|
  |
eb|---------------------------------------------------------------------------------|
Bb|-----------------11^-11^-11^-11^-12^-12^-12^-12^-11^-11^-11^-11^-12^-12^-12^-12^-|
Gb|---------------------------------------------------------------------------------|
Db|-5-5-5-5-5-5-5-5-----------------------------------------------------------------|
Ab|-5-5-5-5-5-5-5-5-----------------------------------------------------------------|
Eb|-3-3-3-3-3-3-3-3-----------------------------------------------------------------|

	Interlude:

eb|-----------------------------------------------------------------|
Bb|-----------------------------------------------------------------|
Gb|-7---7-7-7-7-7-7-7-7-7-7-7-7-7-7---------------------------------|
Db|-7---7-7-7-7-7-7-7-7-7-7-7-7-7-7-7---7-7-7-7-7-7-7-7-7-7-7-7-7-7-|
Ab|-5---5-5-5-5-5-5-5-5-5-5-5-5-5-5-7---7-7-7-7-7-7-7-7-7-7-7-7-7-7-|
Eb|---------------------------------5---5-5-5-5-5-5-5-5-5-5-5-5-5-5-|
  |
eb|-----------------------------------------------------------------|
Bb|-----------------------------------------------------------------|
Gb|-5---5-5-5-5-5-5-5-5-5-5-5-5-5-5-5---5-5-5-5-5-5-5-5-5-5-5-5-5-5-|
Db|-5---5-5-5-5-5-5-5-5-5-5-5-5-5-5-5---5-5-5-5-5-5-5-5-5-5-5-5-5-5-|
Ab|-3---3-3-3-3-3-3-3-3-3-3-3-3-3-3-3---3-3-3-3-3-3-3-3-3-3-3-3-3-3-|
Eb|-----------------------------------------------------------------|
  |
eb|--------------------------------------------------------------------------------|
Bb|--------------------------------------------------------------------------------|
Gb|-7---7-7-7-7-7-7-7-7-7-7-7-7-7-7-10---10-10-10-10-10-10-9--9--9--9--9--9--9--9--|
Db|-7---7-7-7-7-7-7-7-7-7-7-7-7-7-7-10---10-10-10-10-10-10-10-10-10-10-10-10-10-10-|
Ab|-5---5-5-5-5-5-5-5-5-5-5-5-5-5-5-8----8--8--8--8--8--8--8--7--7--7--7--7--7--7--|
Eb|--------------------------------------------------------------------------------|
  |
> Pretty simple tapping here.
eb|-----------------------------------------------------|
Bb|-----------------------------------------------------|
Gb|-752752752752-952952952952-752752752752-952952952952-|
Db|-----------------------------------------------------|
Ab|-----------------------------------------------------|
Eb|-----------------------------------------------------|
  |
eb|-----------------------------------------------------------------|
Bb|-8-----------------------------------------------8~--------------|
Gb|-----------------------------------------------------------------|
Db|-----------------------------------------------------------------|
Ab|-----------------------------------------------------------------|
Db|-----------------------------------------------------------------|

	Chorus:
	
eb|-----------------------------------------------------------------|
Bb|-8-8-8-8-8-8-8-8-8-8-8-8-8-8-8-8-8-8-8-8-8-8-8-8-8-8-8-8-8-8-8-8-|
Gb|-x-x-x-x-x-x-x-x-x-x-x-x-x-x-x-x-x-x-x-x-x-x-x-x-x-x-x-x-x-x-x-x-|
Db|-5-5-5-5-5-5-5-5-5-5-5-5-5-5-5-5-5-5-5-5-5-5-5-5-5-5-5-5-5-5-5-5-|
Ab|-----------------------------------------------------------------|
Eb|-----------------------------------------------------------------|
  |
> With Octave Pedal
eb|--------------------------------|
Bb|--------8-------------8---10~---|
Gb|-----------7~-------------------|
Db|-7---10--------7---10-----------|
Ab|--------------------------------|
Eb|--------------------------------|
  |
eb|-7-7-7-7-7-7-7-7-7-7-7-7-7-7-7-7-7-7-7-7-7-7-7-7-7-7-7-7-7-7-7-7-|
Bb|-8-8-8-8-8-8-8-8-8-8-8-8-8-8-8-8-8-8-8-8-8-8-8-8-8-8-8-8-8-8-8-8-|
Gb|-x-x-x-x-x-x-x-x-x-x-x-x-x-x-x-x-x-x-x-x-x-x-x-x-x-x-x-x-x-x-x-x-|
Db|-5-5-5-5-5-5-5-5-5-5-5-5-5-5-5-5-5-5-5-5-5-5-5-5-5-5-5-5-5-5-5-5-|
Ab|-----------------------------------------------------------------|
Eb|-----------------------------------------------------------------|
  |
eb|------------------------------------|
Bb|------------------------------------|
Gb|------------------------------------|
Db|-5-5-5-5-5-5-5-5-5-5-5-5-5-5-5-12//-|
Ab|-5-5-5-5-5-5-5-5-5-5-5-5-5-5-5-12//-|
Eb|-3-3-3-3-3-3-3-3-3-3-3-3-3-3-3-12//-|

	Outro:
	
eb|----------------------------------------------------------------|
Bb|--------8--------------8---10~---------8--------------8---10~---|
Gb|------------7~-----------------------------7~-------------------|
Db|-7---10---------7---10----------7---10---------7---10-----------|
Ab|----------------------------------------------------------------|
Eb|----------------------------------------------------------------|
  |
eb|-----------------------------------------------------------------|
Bb|--------8--------------8---10~---------8--------------8---10-8---|
Gb|------------7~-----------------------------7~------------------9-|
Db|-7---10---------7---10----------7---10---------7---10------------|
Ab|-----------------------------------------------------------------|
Eb|-----------------------------------------------------------------|
  |
eb|------------------|
Bb|-10~--------------|
Gb|------------------|
Db|------------------|
Ab|------------------|
Eb|------------------|
  
_____________________________________________________________________________
Guitar 2:
(EbAbDbGbBbeb)

	Intro:
	
eb|-----------------------------------------------------------------|
Bb|-----------------------------------------------------------------|
Gb|-----------------------------------------------------------------|
Db|-----------------------------------------------------------------|
Ab|-----------------------------------------------------------------|
Eb|-----------------------------------------------------------------|
  |
eb|-----------------------------------------------------------------|
Bb|-----------------------------------------------------------------|
Gb|---------------------------------5---5-5---5-----5---5-5---5-----|
Db|-3---3-3---3-----3---3-3---3-----5---5-5---5-----5---5-5---5-----|
Ab|-3---3-3---3-----3---3-3---3-----3---3-3---3-----3---3-3---3-----|
Eb|-1---1-1---1-----1---1-1---1-------------------------------------|
  |
eb|-----------------------------------------------------------------|
Bb|-----------------------------------------------------------------|
Gb|-----------------------------------------------------------------|
Db|-7---7-7---7-----7---7-7---7-----7---7-7---7-----7---7-7----7----|
Ab|-7---7-7---7-----7---7-7---7-----7---7-7---7-----7---7-7----7----|
Eb|-5---5-5---5-----5---5-5---5-----5---5-5---5-----5---5-5----5----|
  |
eb|-----------------------------------------------------------------|
Bb|-----------------------------------------------------------------|
Gb|---------------------------------5---5-5---5-----5---5-5---5-----|
Db|-3---3-3---3-----3---3-3---3-----5---5-5---5-----5---5-5---5-----|
Ab|-3---3-3---3-----3---3-3---3-----3---3-3---3-----3---3-3---3-----|
Eb|-1---1-1---1-----1---1-1---1-------------------------------------|

	Verse:
	
eb|-----------------------------------------------------------------|
Bb|-----------------------------------------------------------------|
Gb|-----------------------------------------------------------------|
Db|-7---7-7---7-----7---7-7---7-----7---7-7---7-----7---7-7----7----|
Ab|-7---7-7---7-----7---7-7---7-----7---7-7---7-----7---7-7----7----|
Eb|-5---5-5---5-----5---5-5---5-----5---5-5---5-----5---5-5----5----|
  |
eb|-----------------------------------------------------------------|
Bb|-----------------------------------------------------------------|
Gb|---------------------------------5---5-5---5-----5---5-5---5-----|
Db|-3---3-3---3-----3---3-3---3-----5---5-5---5-----5---5-5---5-----|
Ab|-3---3-3---3-----3---3-3---3-----3---3-3---3-----3---3-3---3-----|
Eb|-1---1-1---1-----1---1-1---1-------------------------------------|
  |
eb|----------------------------------------------------------------|
Bb|----------------------------------------------------------------|
Gb|----------------------------------------------------------------|
Db|-7-----7-----7---7-----7-----7--7-----7-----7---7-----7---7-7-7-|
Ab|-7-----7-----7---7-----7-----7--7-----7-----7---7-----7---7-7-7-|
Eb|-5---5-5---5-5---5---5-5---5-5--5---5-5---5-5---5---5-5---5-5-5-|
  |     .     .         .     .        .     .         .           |
  |
eb|----------------------------------------------------------------|
Bb|----------------------------------------------------------------|
Gb|--------------------------------5-----5-----5---5---------5-5-5-|
Db|-3-----3-----3---3-----3-----3--5-----5-----5---5-----5-5-5-5-5-|
Ab|-3-----3-----3---3-----3-----3--3---3-3---3-3---3---3-3-3-3-3-3-|
Eb|-1---1-1---1-1---1---1-1---1-1----------------------------------|
  |     .     .         .     .        .     .                     |
  |
eb|-----------------------------------------------------------------|
Bb|-----------------------------------------------------------------|
Gb|-----------------------------------------------------------------|
Db|-3-3-3-3-3-3-3-3-3-3-3-3-3-3-3-3-5-5-5-5-5-5-5-5-5-5-5-5-5-5-5-5-|
Ab|-3-3-3-3-3-3-3-3-3-3-3-3-3-3-3-3-5-5-5-5-5-5-5-5-5-5-5-5-5-5-5-5-|
Eb|-1-1-1-1-1-1-1-1-1-1-1-1-1-1-1-1-3-3-3-3-3-3-3-3-3-3-3-3-3-3-3-3-|

	Bridge:
	
eb|-----------------------------------------------------------------------------|
Bb|-----------------------------------------------------------------------------|
Gb|-----------------------------------------------------------------------------|
Db|-7//-----------------------------------7//-----------------------------------|
Ab|-7//-----------------------------------7//-----------------------------------|
Eb|-5//-----------------------------------5//-----------------------------------|
  |
eb|-----------------------------------------------------------------|
Bb|-----------------------------------------------------------------|
Gb|-----------------------------------------------------------------|
Db|-3-3-3-3-3-3-3-3-3-3-3-3-3-3-3-3-5-5-5-5-5-5-5-5-5-5-5-5-5-5-5-5-|
Ab|-3-3-3-3-3-3-3-3-3-3-3-3-3-3-3-3-5-5-5-5-5-5-5-5-5-5-5-5-5-5-5-5-|
Eb|-1-1-1-1-1-1-1-1-1-1-1-1-1-1-1-1-3-3-3-3-3-3-3-3-3-3-3-3-3-3-3-3-|
  |
eb|---------------------------------|
Bb|---------------------------------|
Gb|-5-5-5-5-5-5-5-5-5-5-5-5-5-5-5-5-|
Db|-5-5-5-5-5-5-5-5-5-5-5-5-5-5-5-5-|
Ab|-3-3-3-3-3-3-3-3-3-3-3-3-3-3-3-3-|
Eb|---------------------------------|
  | . . . . . . . . . . . . . . . . |

	Chorus:
	
eb|-----------------------------------------------------------------|
Bb|-----------------------------------------------------------------|
Gb|---------------------------------5-5-5-5-5-5-5-5-5-5-5-5-5-5-5-5-|
Db|-3-3-3-3-3-3-3-3-3-3-3-3-3-3-3-3-5-5-5-5-5-5-5-5-5-5-5-5-5-5-5-5-|
Ab|-3-3-3-3-3-3-3-3-3-3-3-3-3-3-3-3-3-3-3-3-3-3-3-3-3-3-3-3-3-3-3-3-|
Eb|-1-1-1-1-1-1-1-1-1-1-1-1-1-1-1-1---------------------------------|
  |
eb|----------------------------------|
Bb|----------------------------------|
Gb|----------------------------------|
Db|-7---7-7---7-----7---7-7---7------|
Ab|-7---7-7---7-----7---7-7---7------|
Eb|-5---5-5---5-----5---5-5---5------|
  |
eb|-----------------------------------------------------------------|
Bb|-----------------------------------------------------------------|
Gb|---------------------------------5-5-5-5-5-5-5-5-5-5-5-5-5-5-5-5-|
Db|-3-3-3-3-3-3-3-3-3-3-3-3-3-3-3-3-5-5-5-5-5-5-5-5-5-5-5-5-5-5-5-5-|
Ab|-3-3-3-3-3-3-3-3-3-3-3-3-3-3-3-3-3-3-3-3-3-3-3-3-3-3-3-3-3-3-3-3-|
Eb|-1-1-1-1-1-1-1-1-1-1-1-1-1-1-1-1---------------------------------|
  |
eb|-----------------------------------------------|
Bb|-----------------------------------------------|
Gb|-----------------------------------------------|
Db|-5-5-5-5-5-5-5-5-7---7---7---7---7---7---7-----|
Ab|-5-5-5-5-5-5-5-5-7---7---7---7---7---7---7-----|
Eb|-3-3-3-3-3-3-3-3-5---5---5---5---5---5---5-----|

	Verse:
	
eb|-----------------------------------------------------------------|
Bb|-----------------------------------------------------------------|
Gb|-----------------------------------------------------------------|
Db|-7---7-7---7-----7---7-7---7-----9---9-9---9-----9---9-9---9-----|
Ab|-7---7-7---7-----7---7-7---7-----7---7-7---7-----7---7-7---7-----|
Eb|-5---5-5---5-----5---5-5---5-----5---5-5---5-----5---5-5---5-----|
  |
eb|-----------------------------------------------------------------|
Bb|---------------------------------3---3-3---3-----3---3-3---3-----|
Gb|-5---5-5---5-----5---5-5---5-----5---5-5---5-----5---5-5---5-----|
Db|-3---3-3---3-----3---3-3---3-----5---5-5---5-----5---5-5---5-----|
Ab|-3---3-3---3-----3---3-3---3-----3---3-3---3-----3---3-3---3-----|
Eb|-1---1-1---1-----1---1-1---1-------------------------------------|
  |
eb|-----------------------------------------------------------------|
Bb|-----------------------------------------------------------------|
Gb|-----------------------------------------------------------------|
Db|-7---7-7---7-----7---7-7---7-----7---7-7---7-----7---7-7----7----|
Ab|-7---7-7---7-----7---7-7---7-----7---7-7---7-----7---7-7----7----|
Eb|-5---5-5---5-----5---5-5---5-----5---5-5---5-----5---5-5----5----|
  |
eb|-----------------------------------------------------------------|
Bb|-----------------------------------------------------------------|
Gb|---------------------------------5---5-5---5-----5---5-5---5-----|
Db|-3---3-3---3-----3---3-3---3-----5---5-5---5-----5---5-5---5-----|
Ab|-3---3-3---3-----3---3-3---3-----3---3-3---3-----3---3-3---3-----|
Eb|-1---1-1---1-----1---1-1---1-------------------------------------|
  |
eb|-----------------------------------------------------------------|
Bb|-----------------------------------------------------------------|
Gb|-----------------------------------------------------------------|
Db|-3-3-3-3-3-3-3-3-3-3-3-3-3-3-3-3-5-5-5-5-5-5-5-5-5-5-5-5-5-5-5-5-|
Ab|-3-3-3-3-3-3-3-3-3-3-3-3-3-3-3-3-5-5-5-5-5-5-5-5-5-5-5-5-5-5-5-5-|
Eb|-1-1-1-1-1-1-1-1-1-1-1-1-1-1-1-1-3-3-3-3-3-3-3-3-3-3-3-3-3-3-3-3-|

	Bridge:
	
eb|-----------------------------------------------------------------------------|
Bb|-----------------------------------------------------------------------------|
Gb|-----------------------------------------------------------------------------|
Db|-7//-----------------------------------7//-----------------------------------|
Ab|-7//-----------------------------------7//-----------------------------------|
Eb|-5//-----------------------------------5//-----------------------------------|
  |
eb|-----------------------------------------------------------------|
Bb|-----------------------------------------------------------------|
Gb|-----------------------------------------------------------------|
Db|-3-3-3-3-3-3-3-3-3-3-3-3-3-3-3-3-5-5-5-5-5-5-5-5-5-5-5-5-5-5-5-5-|
Ab|-3-3-3-3-3-3-3-3-3-3-3-3-3-3-3-3-5-5-5-5-5-5-5-5-5-5-5-5-5-5-5-5-|
Eb|-1-1-1-1-1-1-1-1-1-1-1-1-1-1-1-1-3-3-3-3-3-3-3-3-3-3-3-3-3-3-3-3-|
  |
eb|-----------------------------------------------------------------|
Bb|-----------------------------------------------------------------|
Gb|-5-5-5-5-5-5-5-5-5-5-5-5-5-5-5-5-5-5-5-5-5-5-5-5-5-5-5-5-5-5-5-5-|
Db|-5-5-5-5-5-5-5-5-5-5-5-5-5-5-5-5-5-5-5-5-5-5-5-5-5-5-5-5-5-5-5-5-|
Ab|-3-3-3-3-3-3-3-3-3-3-3-3-3-3-3-3-3-3-3-3-3-3-3-3-3-3-3-3-3-3-3-3-|
Eb|-----------------------------------------------------------------|
  | . . . . . . . . . . . . . . . .   . . . . . . . . . . . . . . . |
                                        Slowly release palm mute.
										
	Chorus:
	
eb|-----------------------------------------------------------------|
Bb|-----------------------------------------------------------------|
Gb|---------------------------------5-5-5-5-5-5-5-5-5-5-5-5-5-5-5-5-|
Db|-3-3-3-3-3-3-3-3-3-3-3-3-3-3-3-3-5-5-5-5-5-5-5-5-5-5-5-5-5-5-5-5-|
Ab|-3-3-3-3-3-3-3-3-3-3-3-3-3-3-3-3-3-3-3-3-3-3-3-3-3-3-3-3-3-3-3-3-|
Eb|-1-1-1-1-1-1-1-1-1-1-1-1-1-1-1-1---------------------------------|
  |
eb|----------------------------------|
Bb|----------------------------------|
Gb|----------------------------------|
Db|-7---7-7---7-----7---7-7---7------|
Ab|-7---7-7---7-----7---7-7---7------|
Eb|-5---5-5---5-----5---5-5---5------|
  |
eb|-----------------------------------------------------------------|
Bb|-----------------------------------------------------------------|
Gb|---------------------------------5-5-5-5-5-5-5-5-5-5-5-5-5-5-5-5-|
Db|-3-3-3-3-3-3-3-3-3-3-3-3-3-3-3-3-5-5-5-5-5-5-5-5-5-5-5-5-5-5-5-5-|
Ab|-3-3-3-3-3-3-3-3-3-3-3-3-3-3-3-3-3-3-3-3-3-3-3-3-3-3-3-3-3-3-3-3-|
Eb|-1-1-1-1-1-1-1-1-1-1-1-1-1-1-1-1---------------------------------|
  |
eb|-------------------------------------------------------------------------------|
Bb|-------------------------------------------------------------------------------|
Gb|-------------------------------------------------------------------------------|
Db|-5-5-5-5-5-5-5-5-7---7---7---7---7---7---7---7---7---7---7---7---7---7---7-----|
Ab|-5-5-5-5-5-5-5-5-7---7---7---7---7---7---7---7---7---7---7---7---7---7---7-----|
Eb|-3-3-3-3-3-3-3-3-5---5---5---5---5---5---5---5---5---5---5---5---5---5---5-----|

	Interlude:

eb|-----------------------------------------------------------------|
Bb|-----------------------------------------------------------------|
Gb|-7---7-7-7-7-7-7-7-7-7-7-7-7-7-7---------------------------------|
Db|-7---7-7-7-7-7-7-7-7-7-7-7-7-7-7-7---7-7-7-7-7-7-7-7-7-7-7-7-7-7-|
Ab|-5---5-5-5-5-5-5-5-5-5-5-5-5-5-5-7---7-7-7-7-7-7-7-7-7-7-7-7-7-7-|
Eb|---------------------------------5---5-5-5-5-5-5-5-5-5-5-5-5-5-5-|
  |
eb|-----------------------------------------------------------------|
Bb|-----------------------------------------------------------------|
Gb|-5---5-5-5-5-5-5-5-5-5-5-5-5-5-5-5---5-5-5-5-5-5-5-5-5-5-5-5-5-5-|
Db|-5---5-5-5-5-5-5-5-5-5-5-5-5-5-5-5---5-5-5-5-5-5-5-5-5-5-5-5-5-5-|
Ab|-3---3-3-3-3-3-3-3-3-3-3-3-3-3-3-3---3-3-3-3-3-3-3-3-3-3-3-3-3-3-|
Eb|-----------------------------------------------------------------|
  |
eb|--------------------------------------------------------------------------------|
Bb|--------------------------------------------------------------------------------|
Gb|-7---7-7-7-7-7-7-7-7-7-7-7-7-7-7-10---10-10-10-10-10-10-9--9--9--9--9--9--9--9--|
Db|-7---7-7-7-7-7-7-7-7-7-7-7-7-7-7-10---10-10-10-10-10-10-10-10-10-10-10-10-10-10-|
Ab|-5---5-5-5-5-5-5-5-5-5-5-5-5-5-5-8----8--8--8--8--8--8--8--7--7--7--7--7--7--7--|
Eb|--------------------------------------------------------------------------------|
  |
eb|-----------------------------------------------------|
Bb|-----------------------------------------------------|
Gb|-5-------------------------5-------------------------|
Db|-5-------------------------5-------------------------|
Ab|-3-------------------------3-------------------------|
Eb|-----------------------------------------------------|
  |
eb|-----------------------------------------------------------------|
Bb|-----------------------------------------------------------------|
Gb|-5-5-5-5-5-5-5-5-5-5-5-5-5-5-5-5-5-5-5-5-5-5-5-5-5-5-5-5-5-5-5-5-|
Db|-5-5-5-5-5-5-5-5-5-5-5-5-5-5-5-5-5-5-5-5-5-5-5-5-5-5-5-5-5-5-5-5-|
Ab|-3-3-3-3-3-3-3-3-3-3-3-3-3-3-3-3-3-3-3-3-3-3-3-3-3-3-3-3-3-3-3-3-|
Db|-----------------------------------------------------------------|
  |   . . . . . . . . . . . . . . .                                 |
  
	Chorus:
	
eb|-----------------------------------------------------------------|
Bb|-----------------------------------------------------------------|
Gb|---------------------------------5-5-5-5-5-5-5-5-5-5-5-5-5-5-5-5-|
Db|-3-3-3-3-3-3-3-3-3-3-3-3-3-3-3-3-5-5-5-5-5-5-5-5-5-5-5-5-5-5-5-5-|
Ab|-3-3-3-3-3-3-3-3-3-3-3-3-3-3-3-3-3-3-3-3-3-3-3-3-3-3-3-3-3-3-3-3-|
Eb|-1-1-1-1-1-1-1-1-1-1-1-1-1-1-1-1---------------------------------|
  |
eb|----------------------------------|
Bb|----------------------------------|
Gb|----------------------------------|
Db|-7---7-7---7-----7---7-7---7------|
Ab|-7---7-7---7-----7---7-7---7------|
Eb|-5---5-5---5-----5---5-5---5------|
  |
eb|-----------------------------------------------------------------|
Bb|-----------------------------------------------------------------|
Gb|---------------------------------5-5-5-5-5-5-5-5-5-5-5-5-5-5-5-5-|
Db|-3-3-3-3-3-3-3-3-3-3-3-3-3-3-3-3-5-5-5-5-5-5-5-5-5-5-5-5-5-5-5-5-|
Ab|-3-3-3-3-3-3-3-3-3-3-3-3-3-3-3-3-3-3-3-3-3-3-3-3-3-3-3-3-3-3-3-3-|
Eb|-1-1-1-1-1-1-1-1-1-1-1-1-1-1-1-1---------------------------------|
  |
eb|------------------------------------|
Bb|------------------------------------|
Gb|------------------------------------|
Db|-5-5-5-5-5-5-5-5-5-5-5-5-5-5-5-12//-|
Ab|-5-5-5-5-5-5-5-5-5-5-5-5-5-5-5-12//-|
Eb|-3-3-3-3-3-3-3-3-3-3-3-3-3-3-3-12//-|

	Outro:

eb|----------------------------------------------------------------|
Bb|----------------------------------------------------------------|
Gb|----------------------------------------------------------------|
Db|-7/-----------------------------------------------------x//////-|
Ab|-7/-----------------------------------------------------x//////-|
Eb|-5/-----------------------------------------------------x//////-|
  |
eb|-----------------------------------------------------------------|
Bb|-----------------------------------------------------------------|
Gb|-------------------------------------------------5---5-5---5-5-5-|
Db|-7---7-7---7-----7---7-7---7-----3---3-3---3-----5---5-5---5-5-5-|
Ab|-7---7-7---7-----7---7-7---7-----3---3-3---3-----3---3-3---3-3-3-|
Eb|-5---5-5---5-----5---5-5---5-----1---1-1---1---------------------|
  |
eb|-------------------|
Bb|-------------------|
Gb|-------------------|
Db|-7//---------------|
Ab|-7//---------------|
Eb|-5//---------------|

            
            
Suggest correction
Creating personal tab
Creating personal tab
You can edit any tab online and save it as your Personal.

You can edit, replace or remove any tab part or add personal notes – all changes will be seen only by you.

Personal tabs can be accessed anytime from any device, even offline.
Learn more »
Give kudos to tab author, rate the tab!
1 2 3 4 5
comments
print report bad tab
1 comment total.
0 reply
truefoundation 10 Oct 27, 2017 05:46 PM

Can't believe this song is ten years old already! Wow. GREAT tab, dude. Thanks for putting this together!

guest
You may want to rate the tab now too:
select rating
Wanna post a correction for this tab? Suggest correction