Oops, an error
Loading. Please wait.

The Black Plot tab

712 views 18 this week
2 commentsread comments
1 2 3 4 5
2 more votes to show rating
add to favorites
×
Save as Personal and add changes to this tab that will be seen only by you. Learn more ›
×
You can save this tab as Personal to edit and correct it or add notes. All changes will be seen only by you. Learn more »
launch autoscroll
font size
0
reset
how to read this tab
guitar tuner
edit
Autoscroll
slow
fast
+/-
esc
set tempo
stop
About this tab version
This is a tab of The Black Plot by High On Fire tabbed by ear. The rythm is about 155 BPM. Was this info helpful? Yes No
Structure

Intro x2
Break x1
Verse x1
Chorus x1
Verse x1
Chorus x1
Post Chorus x1
Break#2 x1
Verse x1
Chorus x1
Post Chorus x1
Break#2 x1
Intro x2
Verse x1 (Solo)
Post Chorus x2 (Solo Extended)
Break#2 x2
Break x8
Outro x1

(Note: I'm pretty sure about the notes in the fills, Matt Pike plays them with a lot of personality, so
just get a good vibe for them and you'll get it sounding right after a while.)

(about 155 BPM)

[Intro]
d|-----------------------------|---------------------------------|-----------|-----------|
A|-----------------------------|---------------------------------|-----------|-----------|
F|-----------------------------|---------------------------------|-----------|-----------|
C|-7\--------------------------|---------------------------------|-5---------|------8----|
G|-5\--------------------------|---------------------------------|-3----6----|-1----6----|
C|-----0-0-0-0-0-0-0-0-0-0-0-0-|-0-0-0-0-0-0-0-0-0-0-0-0-0-0-0-0-|------6----|-1---------|

d|-----------------------------|---------------------------------|---------------------------------|
A|-----------------------------|---------------------------------|---------------------------------|
F|-----------------------------|---------------------------------|---------------------------------|
C|-7\--------------------------|---------------------------------|-------------------------------8-|
G|-5\--------------------------|---------------------------------|-1--3--4-3--4--6-4--6--7-6--7--6-|
C|-----0-0-0-0-0-0-0-0-0-0-0-0-|-0-0-0-0-0-0-0-0-0-0-0-0-0-0-0-0-|-1--3--4-3--4--6-4--6--7-6--7----|

[Break]
d|-----------------|-----------------|
A|-----------------|-----------------|
F|-----------------|-----------------|
C|-7--5--7-7--5--7-|-7--5--7-7--5--7-|
G|-5--3--5-5--3--5-|-5--3--5-5--3--5-|
C|-----------------|-----------------|

[Verse]
d|-------------------------|---------------------|-----------------------------|-----------------------------|
A|-------------------------|---------------------|-----------------------------|-----------------------------|
F|-------------------------|---------------------|-----------------------------|-----------------------------|
C|-0-----------3-----------|-0-----------7--6--4-|-6---------------------------|-----------------------------|
G|-0-----------3-----------|-0-----------7--6--4-|-6---------------------------|-----------------------------|
C|-0---0-0-0-0-3---3-3-3-3-|-0---0-0-0-0-7--6--4-|-6---6-6-6-6-6-6-6-6-6-6-6-6-|-4h6p4h6p4h6\--0h3p0h3p0h3\--|

d|-------------------------|---------------------|-----------------------------|
A|-------------------------|---------------------|-----------------------------|
F|-------------------------|---------------------|-----------------------------|
C|-0-----------3-----------|-0-----------7--6--4-|-6---------------------------|
G|-0-----------3-----------|-0-----------7--6--4-|-6---------------------------|
C|-0---0-0-0-0-3---3-3-3-3-|-0---0-0-0-0-7--6--4-|-6---6-6-6-6-6-6-6-6-6-6-6-6-|

d|---------------------------------|
A|---------------------------------|
F|---------------------------------|
C|---------------------------------|
G|-8-8-8-8-8-8-8-8-5-4-3-2---------|
C|-------------------------7-6-5-4-|

d|-------------------------|---------------------|-----------------------------|-----------------|
A|-------------------------|---------------------|-----------------------------|-----------------|
F|-------------------------|---------------------|-----------------------------|-----------------|
C|-0-----------3-----------|-0-----------7--6--4-|-6---------------------------|-3---------------|
G|-0-----------3-----------|-0-----------7--6--4-|-6---------------------------|-3----\pickslide-|
C|-0---0-0-0-0-3---3-3-3-3-|-0---0-0-0-0-7--6--4-|-6---6-6-6-6-6-6-6-6-6-6-6-6-|-3----\pickslide-|

d|-------------------------|---------------------|-----------------------------|
A|-------------------------|---------------------|-----------------------------|
F|-------------------------|---------------------|-----------------------------|
C|-0-----------3-----------|-0-----------7--6--4-|-6---------------------------|
G|-0-----------3-----------|-0-----------7--6--4-|-6---------------------------|
C|-0---0-0-0-0-3---3-3-3-3-|-0---0-0-0-0-7--6--4-|-6---6-6-6-6-6-6-6-6-6-6-6-6-|

d|---------------------------------|
A|---------------------------------|
F|---------------------------------|
C|---------------------------------|
G|-8-8-8-8-8-8-8-8-5-4-3-2---------|
C|-------------------------7-6-5-4-|

[Chorus]
d|------|-----------------|------|-----------------|
A|------|-----------------|------|-----------------|
F|------|-----------------|------|-----------------|
C|-0----|-3--5--7-7--5--3-|-2----|-8--6--5-4--3--2-|
G|-0----|-5--7--8-8--7--5-|-3----|-8--6--5-4--3--2-|
C|-0----|-----------------|------|-8--6--5-4--3--2-|

d|------|-----------------|------|-------------------|
A|------|-----------------|------|-------------------|
F|------|-----------------|------|---------------7---|
C|-0----|-3--2--3-7--5--3-|-2----|-7-6---3--3--3-7---|
G|-0----|-5--3--5-8--7--5-|-3----|-7-6---3--3--3-5---|
C|-0----|-----------------|------|-7-6---3--3--3-----|

d|------|-----------------|------|----------------------------------|
A|------|-----------------|------|----------------------------------|
F|------|-----------------|------|----------------------------------|
C|-0----|-3--5--7-7--5--3-|-2----|------------------------------7---|
G|-0----|-5--7--8-8--7--5-|-3----|------------------------------5---|
C|-0----|-----------------|------|-8h11p8h11p8h11\--4h7p4h7p4h7-----|

d|------|-----------------|------|-----------------|
A|------|-----------------|------|-----------------|
F|------|-----------------|------|-----------------|
C|-0----|-3--5--7-7--5--3-|-2----|-8--6--5-4--3--2-|
G|-0----|-5--7--8-8--7--5-|-3----|-8--6--5-4--3--2-|
C|-0----|-----------------|------|-8--6--5-4--3--2-|

[Verse]
d|-------------------------|---------------------|-----------------------------|-----------------------------|
A|-------------------------|---------------------|-----------------------------|-----------------------------|
F|-------------------------|---------------------|-----------------------------|-----------------------------|
C|-0-----------3-----------|-0-----------7--6--4-|-6---------------------------|-----------------------------|
G|-0-----------3-----------|-0-----------7--6--4-|-6---------------------------|-----------------------------|
C|-0---0-0-0-0-3---3-3-3-3-|-0---0-0-0-0-7--6--4-|-6---6-6-6-6-6-6-6-6-6-6-6-6-|-4h6p4h6p4h6\--0h3p0h3p0h3\--|

d|-------------------------|---------------------|-----------------------------|
A|-------------------------|---------------------|-----------------------------|
F|-------------------------|---------------------|-----------------------------|
C|-0-----------3-----------|-0-----------7--6--4-|-6---------------------------|
G|-0-----------3-----------|-0-----------7--6--4-|-6---------------------------|
C|-0---0-0-0-0-3---3-3-3-3-|-0---0-0-0-0-7--6--4-|-6---6-6-6-6-6-6-6-6-6-6-6-6-|

d|---------------------------------|
A|---------------------------------|
F|---------------------------------|
C|---------------------------------|
G|-8-8-8-8-8-8-8-8-5-4-3-2---------|
C|-------------------------7-6-5-4-|

d|-------------------------|---------------------|-----------------------------|-----------------|
A|-------------------------|---------------------|-----------------------------|-----------------|
F|-------------------------|---------------------|-----------------------------|-----------------|
C|-0-----------3-----------|-0-----------7--6--4-|-6---------------------------|-3---------------|
G|-0-----------3-----------|-0-----------7--6--4-|-6---------------------------|-3----\pickslide-|
C|-0---0-0-0-0-3---3-3-3-3-|-0---0-0-0-0-7--6--4-|-6---6-6-6-6-6-6-6-6-6-6-6-6-|-3----\pickslide-|

d|-------------------------|---------------------|-----------------------------|
A|-------------------------|---------------------|-----------------------------|
F|-------------------------|---------------------|-----------------------------|
C|-0-----------3-----------|-0-----------7--6--4-|-6---------------------------|
G|-0-----------3-----------|-0-----------7--6--4-|-6---------------------------|
C|-0---0-0-0-0-3---3-3-3-3-|-0---0-0-0-0-7--6--4-|-6---6-6-6-6-6-6-6-6-6-6-6-6-|

d|---------------------------------|
A|---------------------------------|
F|---------------------------------|
C|---------------------------------|
G|-8-8-8-8-8-8-8-8-5-4-3-2---------|
C|-------------------------7-6-5-4-|

[Chorus]
d|------|-----------------|------|-----------------|
A|------|-----------------|------|-----------------|
F|------|-----------------|------|-----------------|
C|-0----|-3--5--7-7--5--3-|-2----|-8--6--5-4--3--2-|
G|-0----|-5--7--8-8--7--5-|-3----|-8--6--5-4--3--2-|
C|-0----|-----------------|------|-8--6--5-4--3--2-|

d|------|-----------------|------|-------------------|
A|------|-----------------|------|-------------------|
F|------|-----------------|------|---------------7---|
C|-0----|-3--2--3-7--5--3-|-2----|-7-6---3--3--3-7---|
G|-0----|-5--3--5-8--7--5-|-3----|-7-6---3--3--3-5---|
C|-0----|-----------------|------|-7-6---3--3--3-----|

d|------|-----------------|------|----------------------------------|
A|------|-----------------|------|----------------------------------|
F|------|-----------------|------|----------------------------------|
C|-0----|-3--5--7-7--5--3-|-2----|------------------------------7---|
G|-0----|-5--7--8-8--7--5-|-3----|------------------------------5---|
C|-0----|-----------------|------|-8h11p8h11p8h11\--4h7p4h7p4h7-----|

d|------|-----------------|------|-----------------|
A|------|-----------------|------|-----------------|
F|------|-----------------|------|-----------------|
C|-0----|-3--5--7-7--5--3-|-2----|-8--6--5-4--3--2-|
G|-0----|-5--7--8-8--7--5-|-3----|-8--6--5-4--3--2-|
C|-0----|-----------------|------|-8--6--5-4--3--2-|

[Post Chorus]
d|------|------|---------|---------|-----|-------|-------------------------------|-----------------------|
A|------|------|---------|---------|-----|-------|-------------------------------|-----------------------|
F|------|------|-5-------|-5---5---|-----|-------|-------------------------------|-----------------------|
C|-0----|-3----|-5---3---|-5---5---|-----|-13~---|-10-10-10-10-10-10-9-9-9-9-9-9-|-8-8-8-8-8-8-10---10---|
G|-0----|-x----|-3---3---|-3---3---|-12--|-11~---|-12----------------11----------|-10----------8----8----|
C|-0----|-6----|-----3---|---------|-0---|-13~---|-------------------------------|-----------------------|

[Break#2]
d|-----------------|-----------------|-----------------|--------------|
A|-----------------|-----------------|-----------------|--------------|
F|-----------------|-----------------|-----------------|--------------|
C|-7--5--7-7--5--7-|-7--5--7-7--5--7-|-7--5--7-7--5--7-|-7--5--7-10---|
G|-5--3--5-5--3--5-|-5--3--5-5--3--5-|-5--3--5-5--3--5-|-5--3--5-8----|
C|-----------------|-----------------|-----------------|--------------|

[Verse]
d|-------------------------|---------------------|-----------------------------|-----------------------------|
A|-------------------------|---------------------|-----------------------------|-----------------------------|
F|-------------------------|---------------------|-----------------------------|-----------------------------|
C|-0-----------3-----------|-0-----------7--6--4-|-6---------------------------|-----------------------------|
G|-0-----------3-----------|-0-----------7--6--4-|-6---------------------------|-----------------------------|
C|-0---0-0-0-0-3---3-3-3-3-|-0---0-0-0-0-7--6--4-|-6---6-6-6-6-6-6-6-6-6-6-6-6-|-4h6p4h6p4h6\--0h3p0h3p0h3\--|

d|-------------------------|---------------------|-----------------------------|
A|-------------------------|---------------------|-----------------------------|
F|-------------------------|---------------------|-----------------------------|
C|-0-----------3-----------|-0-----------7--6--4-|-6---------------------------|
G|-0-----------3-----------|-0-----------7--6--4-|-6---------------------------|
C|-0---0-0-0-0-3---3-3-3-3-|-0---0-0-0-0-7--6--4-|-6---6-6-6-6-6-6-6-6-6-6-6-6-|

d|---------------------------------|
A|---------------------------------|
F|---------------------------------|
C|---------------------------------|
G|-8-8-8-8-8-8-8-8-5-4-3-2---------|
C|-------------------------7-6-5-4-|

d|-------------------------|---------------------|-----------------------------|-----------------|
A|-------------------------|---------------------|-----------------------------|-----------------|
F|-------------------------|---------------------|-----------------------------|-----------------|
C|-0-----------3-----------|-0-----------7--6--4-|-6---------------------------|-3---------------|
G|-0-----------3-----------|-0-----------7--6--4-|-6---------------------------|-3----\pickslide-|
C|-0---0-0-0-0-3---3-3-3-3-|-0---0-0-0-0-7--6--4-|-6---6-6-6-6-6-6-6-6-6-6-6-6-|-3----\pickslide-|

d|-------------------------|---------------------|-----------------------------|
A|-------------------------|---------------------|-----------------------------|
F|-------------------------|---------------------|-----------------------------|
C|-0-----------3-----------|-0-----------7--6--4-|-6---------------------------|
G|-0-----------3-----------|-0-----------7--6--4-|-6---------------------------|
C|-0---0-0-0-0-3---3-3-3-3-|-0---0-0-0-0-7--6--4-|-6---6-6-6-6-6-6-6-6-6-6-6-6-|

d|---------------------------------|
A|---------------------------------|
F|---------------------------------|
C|---------------------------------|
G|-8-8-8-8-8-8-8-8-5-4-3-2---------|
C|-------------------------7-6-5-4-|

[Chorus]
d|------|-----------------|------|-----------------|
A|------|-----------------|------|-----------------|
F|------|-----------------|------|-----------------|
C|-0----|-3--5--7-7--5--3-|-2----|-8--6--5-4--3--2-|
G|-0----|-5--7--8-8--7--5-|-3----|-8--6--5-4--3--2-|
C|-0----|-----------------|------|-8--6--5-4--3--2-|

d|------|-----------------|------|-------------------|
A|------|-----------------|------|-------------------|
F|------|-----------------|------|---------------7---|
C|-0----|-3--2--3-7--5--3-|-2----|-7-6---3--3--3-7---|
G|-0----|-5--3--5-8--7--5-|-3----|-7-6---3--3--3-5---|
C|-0----|-----------------|------|-7-6---3--3--3-----|

d|------|-----------------|------|----------------------------------|
A|------|-----------------|------|----------------------------------|
F|------|-----------------|------|----------------------------------|
C|-0----|-3--5--7-7--5--3-|-2----|------------------------------7---|
G|-0----|-5--7--8-8--7--5-|-3----|------------------------------5---|
C|-0----|-----------------|------|-8h11p8h11p8h11\--4h7p4h7p4h7-----|

d|------|-----------------|------|-----------------|
A|------|-----------------|------|-----------------|
F|------|-----------------|------|-----------------|
C|-0----|-3--5--7-7--5--3-|-2----|-8--6--5-4--3--2-|
G|-0----|-5--7--8-8--7--5-|-3----|-8--6--5-4--3--2-|
C|-0----|-----------------|------|-8--6--5-4--3--2-|

[Post Chorus]
d|------|------|---------|---------|-----|-------|-------------------------------|-----------------------|
A|------|------|---------|---------|-----|-------|-------------------------------|-----------------------|
F|------|------|-5-------|-5---5---|-----|-------|-------------------------------|-----------------------|
C|-0----|-3----|-5---3---|-5---5---|-----|-13~---|-10-10-10-10-10-10-9-9-9-9-9-9-|-8-8-8-8-8-8-10---10---|
G|-0----|-x----|-3---3---|-3---3---|-12--|-11~---|-12----------------11----------|-10----------8----8----|
C|-0----|-6----|-----3---|---------|-0---|-13~---|-------------------------------|-----------------------|

[Break#2]
d|-----------------|-----------------|-----------------|--------------|
A|-----------------|-----------------|-----------------|--------------|
F|-----------------|-----------------|-----------------|--------------|
C|-7--5--7-7--5--7-|-7--5--7-7--5--7-|-7--5--7-7--5--7-|-7--5--7-10---|
G|-5--3--5-5--3--5-|-5--3--5-5--3--5-|-5--3--5-5--3--5-|-5--3--5-8----|
C|-----------------|-----------------|-----------------|--------------|

[Intro x2]
d|-----------------------------|---------------------------------|-----------|-----------|
A|-----------------------------|---------------------------------|-----------|-----------|
F|-----------------------------|---------------------------------|-----------|-----------|
C|-7\--------------------------|---------------------------------|-5---------|------8----|
G|-5\--------------------------|---------------------------------|-3----6----|-1----6----|
C|-----0-0-0-0-0-0-0-0-0-0-0-0-|-0-0-0-0-0-0-0-0-0-0-0-0-0-0-0-0-|------6----|-1---------|

[Verse (Solo)]
d|-------------------------|---------------------|-----------------------------|-----------------------------|
A|-------------------------|---------------------|-----------------------------|-----------------------------|
F|-------------------------|---------------------|-----------------------------|-----------------------------|
C|-0-----------3-----------|-0-----------7--6--4-|-6---------------------------|-----------------------------|
G|-0-----------3-----------|-0-----------7--6--4-|-6---------------------------|-----------------------------|
C|-0---0-0-0-0-3---3-3-3-3-|-0---0-0-0-0-7--6--4-|-6---6-6-6-6-6-6-6-6-6-6-6-6-|-4h6p4h6p4h6\--0h3p0h3p0h3\--|

[Post Chorus x2]
d|------|------|---------|---------|-----|-------|-------------------------------|-----------------------|
A|------|------|---------|---------|-----|-------|-------------------------------|-----------------------|
F|------|------|-5-------|-5---5---|-----|-------|-------------------------------|-----------------------|
C|-0----|-3----|-5---3---|-5---5---|-----|-13~---|-10-10-10-10-10-10-9-9-9-9-9-9-|-8-8-8-8-8-8-10---10---|
G|-0----|-x----|-3---3---|-3---3---|-12--|-11~---|-12----------------11----------|-10----------8----8----|
C|-0----|-6----|-----3---|---------|-0---|-13~---|-------------------------------|-----------------------|

[Break#2 x2]
d|-----------------|-----------------|-----------------|--------------|
A|-----------------|-----------------|-----------------|--------------|
F|-----------------|-----------------|-----------------|--------------|
C|-7--5--7-7--5--7-|-7--5--7-7--5--7-|-7--5--7-7--5--7-|-7--5--7-10---|
G|-5--3--5-5--3--5-|-5--3--5-5--3--5-|-5--3--5-5--3--5-|-5--3--5-8----|
C|-----------------|-----------------|-----------------|--------------|

[Break x8]
d|-----------------|-----------------|
A|-----------------|-----------------|
F|-----------------|-----------------|
C|-7--5--7-7--5--7-|-7--5--7-7--5--7-|
G|-5--3--5-5--3--5-|-5--3--5-5--3--5-|
C|-----------------|-----------------|

[Outro]
d|---------|---------|
A|---------|---------|
F|-7---5---|---------|
C|-7---5---|-6---3---|
G|-5---3---|-6---3---|
C|---------|-6---3---|

d|---------|-------------|------|
A|---------|-------------|------|
F|-7---5---|-------------|-7----|
C|-7---5---|-6---3--3--3-|-7----|
G|-5---3---|-6---3--3--3-|-5----|
C|---------|-6---3--3--3-|------|

 
************************************

| \  Slide down
| h  Hammer-on
| p  Pull-off
| ~  Vibrato
| x  Dead note
 

************************************

            
            
Suggest correction
Creating personal tab
Creating personal tab
You can edit any tab online and save it as your Personal.

You can edit, replace or remove any tab part or add personal notes – all changes will be seen only by you.

Personal tabs can be accessed anytime from any device, even offline.
Learn more »
Give kudos to tab author, rate the tab!
1 2 3 4 5
comments
print report bad tab
2 comments total.
0 reply
colinembree1623 217 Mar 01, 2017 09:06 PM

This is in the wrong tunning, and a lot of it is off

+1 reply
BillDemote 159 Mar 01, 2017 10:37 PM

It is the wrong tuning, but it is by no means off. Maybe some of the fills are more or less accurate but the notes are good.

guest
You may want to rate the tab now too:
select rating
Wanna post a correction for this tab? Suggest correction