Oops, an error
Loading. Please wait.

Round And Round tab

535 views 21 this week
1 commentread comment
1 2 3 4 5
1 last vote to show rating
add to favorites
×
Save as Personal and add changes to this tab that will be seen only by you. Learn more ›
×
You can save this tab as Personal to edit and correct it or add notes. All changes will be seen only by you. Learn more »
launch autoscroll
font size
0
reset
how to read this tab
guitar tuner
edit
Autoscroll
slow
fast
+/-
esc
set tempo
stop
About this tab version
First upload - most versions are improv so this is just how i play it. Similar to the old spotify version. Was this info helpful? Yes No
[Intro]
e|-------5-------------------------------------------------------------------|
B|-------5------------------------------------10--10h12-10-------------------|
G|-------5-----------------9h10-9h10-9--------10--10h12-10-------------------|
D|--7----7--7-7--7--9--10--------------10s12--------------12-----5-------7---|
A|--7-------5-5--7--9--10---------------------------------------5-5-----7-7--|
E|--5-------5-5--5--7--8-------------------------------------3s5---5-5s7---7-|

e|--------------------------------------------------5------------8--------------|
B|----------------------------------------------------------------8-8b10-8b10r8-|
G|-------------5-7-7b9r7p5--7vvvvvv---5-7-5-7b9-7p5---7b9r7-5-5-----------------|
D|--3s7-7----7-----------------------------------------------7------------------|
A|------------------------------------------------------------------------------|
E|------------------------------------------------------------------------------|

e|---------------------------------------------------------------------------|
B|--5------------------------------------------------------------------------|
G|----7b9r7p5--7b9--7b9r7--7p5-------------7--------9------------------------|
D|-----------------------------7-7p5-5--5s7-7-7--7s9-9-9--7------------------|
A|----------------------------------7---------------------7------------------|
E|--------------------------------------------------------5------------------|

[Verse]
e|---------------------------------------------------------------------------|
B|---------------------------------------------------------------------------|
G|------------------------5-7-7b9-7p5--7--pb9r7--5---------------------------| 
D|--7-----9--10---12----7----------------------------7-----------------------| 
A|--7-----9--10---12---------------------------------------------------------|  
E|--5-----7--8----10---------------------------------------------------------|

I awoke, in the morning, on the couch

e|---------------------------------------------------------------------------|
B|---------------------------------------------------------------------------|
G|-----------------------7s9-7-5---5h7-5---5h7p5h5p7h5p7..etc----------------| (a little little wing esque
D|--7-----9--10---12-------------7-------7-----------------------------------|  riff at the end)
A|--7-----9--10---12---------------------------------------------------------|
E|--5-----7--8----10---------------------------------------------------------|

And i walked home from my neighbour's house

e|-------5-------------------------------------------------------------------|
B|-------5------------------------------------10--10h12-10-------------------|
G|-------5-----------------9h10-9h10-9--------10--10h12-10-------------------|
D|--7----7--7-7--7--9--10--------------10s12--------------12-----5-------7---|
A|--7-------5-5--7--9--10---------------------------------------5-5-----7-7--|
E|--5-------5-5--5--7--8-------------------------------------3s5---5-5s7---7-|

Though i knew that the sun would return soon

e|-------5-----------------------------------------------------------------------------------|
B|-------5------------------------------------------------10----10h12-10---------------------|
G|-------5-------5h7-5--------9----9----9h10-9h10-9-------10----10h12-10---------------------|
D|--7----7-----7-------7----------------------------10s12----------------12------5-------7---|
A|--7---------------------------------------------------------------------------5-5-----7-7--|
E|--5------------------------------------------------------------------------3s5---5-5s7---7-|

When she left she did not say good bye
She just goes

e|--------------------------------------------------------------------------------------------|
B|----------------------------------------------------------------------------7--7b9----------|
G|-------------------------------5-7-7b9vvvv-5---5-7-7b9r7-5---5b3------------7--7b9-5---5----| 
D|--7---------------------------7--------------7-------------7-----7-----5-7-----------7---7--|  
A|--7----------------------------------------------------------------5h7-------------------7--|
E|--5--------------------------------------------------------------------------------------5--|

(Chord) - "Easily round and round" - (then riff)
e|----X----------------------------5-------------5---------5-------------------|
B|-----X----------7--7b9-------------8--5--5-------8p5-------8p5---------------|
G|------X---------7--7b9--5-5--7b9-----------7b9--------7b9------7b9r7-5-------|
D|-------X-----------------7---------------------------------------------7--5--|
A|--------X--------------------------------------------------------------------|
E|---------X-------------------------------------------------------------------|

(MUTED HALFWAY IN THE LYRIC) "Easily round and round, she goes" - THEN RIFF

[Chorus]
e|-------------------------------------------------------------------------------------|
B|-------------------------------------------------------------------------------------|
G|--------------------5--5--5--5-5------7--7--7--7-7-----------------------------------|
D|--7--7--7--7-7------5--5--5--5-5------7--7--7--7-7------10---10-10-10--9----9--9--9--|
A|--7--7--7--7-7------3--3--3--3-3------5--5--5--5-5------8----8--8--8---7----7--7--7--|
E|--5--5--5--5-5-----------------------------------------------------------------------|

It gets hard once you now

e|-------5---------------------------------------------------------------------------------------------------|
B|-------5---------------------------------------------------------------------------------------------------|
G|-------5--------------------------------8------------------------------------------------------------------|
D|--7----7--7-7--7--9-------10-------8-10---7(harmonic)---7-9-9b7----7-9-9b7--7p5-7--7-5-5s3-3-2-2s3-3s5-5s6-|
A|--7-------5-5--7--9-------10--8-10-------------------------------------------------------------------------|
E|--5-------5-5--5--7-------8--------------------------------------------------------------------------------|

Someday, Someday it ends

e|-------------------------------------------------------------------------------------10------------12------|
B|---------------------------------------------------------------15------------------10--10--------12--12----|
G|------------------------------12-14-14b16r14-12----------12-14----14b16r14--7s10-10------10-10s12------12--|
D|--6s7-7s9-9s10-10-12-10-12s14-------------------14-12-14---------------------------------------------------|
A|-----------------------------------------------------------------------------------------------------------|
E|-----------------------------------------------------------------------------------------------------------|

e|---------------------------------------------------------------------------|
B|--13--12-------------------------------------------------------------------|
G|---------12s1--------------------------------------------------------------|
D|---------------------------------------------------------------------------|
A|---------------------------------------------------------------------------|
E|---------------------------------------------------------------------------|

e|---------------------------------------------------------------------------|
B|---------------------------------------------------------------------------|
G|---------------------------------------------------------------------------| 
D|--7-----9--10---12---------------------------------------------------------|  
A|--7-----9--10---12---------------------------------------------------------|
E|--5-----7--8----10----5--7-------------------------------------------------|

And now you know, that its got your soul, your soul.

e|-------------------------------------------------------------------------------|
B|-------------------------------------------------------------------------------|
G|-------------------------------------------------------------------------------| 
D|--7-----9--10---12----14--14-14--14-14--14-14--14-14--10--10--10-10--9--9-9-9--|  
A|--7-----9--10---12----14--14-14--14-14--14-14--14-14--10--10--10-10--9--9-9-9--|
E|--5-----7--8----10----12--12-12--12-12--12-12--12-12--8---8---8--8---7--7-7-7--|

There aint no use in hiding now.  Just let go, lose control

e|-------------------------------------------------------------------------------------|
B|-------------------------------------------------------------------------------------|
G|--------------------5--5--5--5-5------7--7--7--7-7-----------------------------------|
D|--7--7--7--7-7------5--5--5--5-5------7--7--7--7-7------10---10-10-10--9----9--9--9--|
A|--7--7--7--7-7------3--3--3--3-3------5--5--5--5-5------8----8--8--8---7----7--7--7--|
E|--5--5--5--5-5-----------------------------------------------------------------------|

e|-------------------------------------------------------------------------------|
B|-------------------------------------------------------------------------------|
G|-------------------------------------------------------------------------------| 
D|--7-----9--10---12----14--14-14--14-14--14-14--14-14--10--10--10-10--9--9-9-9--|  
A|--7-----9--10---12----14--14-14--14-14--14-14--14-14--10--10--10-10--9--9-9-9--|
E|--5-----7--8----10----12--12-12--12-12--12-12--12-12--8---8---8--8---7--7-7-7--|

[Solo]
e|-----------------------5---------------------------------|
B|-----------------------5--8p5-7p5------------------------|
G|--------------------5b7-----------7-5-7-7b9-7p5-5--------|
D|--7--7--7--7-7---------------------------------7-7-5-----|
A|--7--7--7--7-7-------------------------------------------|
E|--5--5--5--5-5-------------------------------------------|

e|----------------12--------------------------------------|
B|----------------15b17-15-13-15-15b17-15p13----13--------|
G|--5--5--5--5-5-----------------------------14----14-----|
D|--5--5--5--5-5------------------------------------------|
A|--3--3--3--3-3------------------------------------------|
E|--------------------------------------------------------|

e|----------------5------8---------------------------------------------------|
B|------------------8s11-----------------------------------------------------|
G|--7--7--7--7-7-------------------------------------------------------------|
D|--7--7--7--7-7-------------------------------------------------------------|
A|--5--5--5--5-5-------------------------------------------------------------|
E|---------------------------------------------------------------------------|

e|----------------5------8----8-10-8-8-12-8-8-8-10-8-8-8-12-8-12-8-12-8-12s15-12-15-12-15-12--------|
B|------------------8s10---10-----------------------------------------------------------------------|
G|--7--7--7--7-7------------------------------------------------------------------------------------|
D|--7--7--7--7-7------------------------------------------------------------------------------------|
A|--5--5--5--5-5------------------------------------------------------------------------------------|
E|--------------------------------------------------------------------------------------------------|

e|-15b17-----15b17--15b17--15b17------15b17-15p12-15b17-15b17-----15vvvvvvvv--15-15-14-14-13-13-12-12--------|
B|-----------------------------------------------------------------------------------------------------------|
G|-----------------------------------------------------------------------------------------------------------|
D|-----------------------------------------------------------------------------------------------------------|
A|-----------------------------------------------------------------------------------------------------------|
E|-----------------------------------------------------------------------------------------------------------|

e|-----------------------------------------------------...|
B|--15-15b17-15b17-15p13----13-------------13-------13 ...|
G|-----------------------14----14-12-12h14----12h14----...| improv in the key of A (blues scale)
D|-----------------------------------------------------...|
A|-----------------------------------------------------...|
E|-----------------------------------------------------...|

[Outro]
e|--------------------------------|
B|--------------------------------|
G|------7--------------9----------|
D|--5s7---7-7-7----7s9---9-9-9----|
A|--------------------------------|
E|--------------------------------|

e|-------5-------------------------------------------------------------------|
B|-------5-------------------------------------------------------------------|
G|-------5------------------5h7p5h7p5h7p5h7-5--------------------------------|
D|--7----7--7-7--7--9--10---------------------7-7----------------------------|
A|--7-------5-5--7--9--10----------------------------------------------------|
E|--5-------5-5--5--7--8-----------------------------------------------------|

Easily round and round

e|-------5-----------------5-------------------------------------------------|
B|-------5-------------------8-5---------------------------------------------|
G|-------5-----------------------7h9r7-5-------------------------------------|
D|--7----7--7-7--7--9--10----------------7-----7-5-7-------------------------|
A|--7-------5-5--7--9--10----------------------------------------------------|
E|--5-------5-5--5--7--8-----------------------------------------------------|

Easily round and round, she goes

e|-------5-------------------------------------------------------------------|
B|-------5-------------------------------------------------------------------|
G|-------5-----------------5-7-5---7-5---------------------------------------|
D|--7----7--7-7--7--9--10--------------7-6-5---------------------------------|
A|--7-------5-5--7--9--10--------------------7-6-5---------------------------|
E|--5-------5-5--5--7--8---------------------------8-5-----------------------|

Easily round and round, she goes

e|---------------------------------------------------------------------------|
B|---------------------------------------------------------------------------|
G|---------------------------------------------------------------------------|
D|--7--8--10--12--14---------------------------------------------------------|
A|--7--8--10--12--14---------------------------------------------------------|
E|--5--7--8---10--12---------------------------------------------------------|

Where i was born, before i was born


************************************

| x   Dead note
| g   Grace note
| (n) Ghost note
| h   Hammer-on
| p   Pull-off
| r   Release
| >   Accented note
| t   Tapping
| b   Bend
| br  Bend release
| pb  Pre-bend
| pbr Pre-bend release
| /   Slide up
| \   Slide down
| ~   Vibrato
| s   Slap
| P   Pop
| PM  Palm mute
| TR  Trill
| N   Tremolo

************************************



************************************

| h   Hammer-on
| r   Release
| b   Bend
| p   Pull-off
| pb  Pre-bend

************************************

            
            
Suggest correction
Creating personal tab
Creating personal tab
You can edit any tab online and save it as your Personal.

You can edit, replace or remove any tab part or add personal notes – all changes will be seen only by you.

Personal tabs can be accessed anytime from any device, even offline.
Learn more »
Give kudos to tab author, rate the tab!
1 2 3 4 5
comments
print report bad tab
1 comment total.
0 reply
mhandley921 10 Aug 26, 2017 10:18 PM

When was this made? I looked on here like four months ago and there wasn't a tab for this. Great work!

guest
You may want to rate the tab now too:
select rating
Wanna post a correction for this tab? Suggest correction