Oops, an error
Loading. Please wait.

Serotonia tab

version 1
version 1

Whole song

35,023 views 528 this week
5 commentsread comments
1 2 3 4 5
x 42
add to favorites
×
Save as Personal and add changes to this tab that will be seen only by you. Learn more ›
×
You can save this tab as Personal to edit and correct it or add notes. All changes will be seen only by you. Learn more »
launch autoscroll
font size
0
reset
how to read this tab
guitar tuner
edit
Autoscroll
slow
fast
+/-
esc
set tempo
stop
Author
Difficulty
intermediate
Artist: Highly Suspect
Song: Serotonia


[Intro]

e|---------------------------------------------------------------------|
B|---------------------------------------------------------------------|
G|---------------------------------------------------------------------|
D|---5-----5-----5------1-----1-----1------2-----2-----2---2-----4p2-0-|
A|-----5-----5------------0-----0------------0-----0---------0---------|
E|-3-----3-----3------2-----2-----2------0-----0-----0---0-----0----0--|

e|----------------------------------------------------------------------|
B|----------------------------------------------------------------------|
G|---------------------------------------------------------\4-4-4-4p2---|
D|---5-----5-----5------1-----1-----1------2-----2-----2--------------0-|
A|-----5-----5------------0-----0------------0-----0--------------------|
E|-3-----3-----3------2-----2-----2------0-----0-----0---0--------------|


[Verse]

e|---------------------------------------------------------------------|
B|---------------------------------------------------------------------|
G|---------------------------------------------------------------------|
D|---5-----5-----5------1-----1-----1------2-----2-----2---2-----4p2-0-|
A|-----5-----5------------0-----0------------0-----0---------0---------|
E|-3-----3-----3------2-----2-----2------0-----0-----0---0-----0----0--|

e|----------------------------------------------------------------------|
B|----------------------------------------------------------------------|
G|---------------------------------------------------------\4-4-4-4p2---|
D|---5-----5-----5------1-----1-----1------2-----2-----2--------------0-|
A|-----5-----5------------0-----0------------0-----0--------------------|
E|-3-----3-----3------2-----2-----2------0-----0-----0---0--------------|

e|------------------------------------------------------------------|
B|------------------------------------------------------------------|
G|------------------------------------------------------------------|
D|---5-----5-----5------1-----1-----1------2-----2-----2--4--5--4-0-|
A|-----5-----5------------0-----0------------0-----0----------------|
E|-3-----3-----3------2-----2-----2------0-----0-----0---0--0--0----|

e|-----------------------------------------|
B|-----------------------------------------|
G|-----------------------------------------|
D|---5-----5-----5------1-----1-----1----2-|
A|-----5-----5------------0-----0----------|
E|-3-----3-----3------2-----2-----2------0-|


[Chorus]

e|-7--5--5--0-0-0------------0---0--------------------------------------------------|
B|-8--7--7--2-2-2-----3------2---2---2-----3----------------0---3-0-0-0---0-------0-|
G|-------7--0-0---0---0--0---0---0-0-0-------4\2p0----------0---0-0-0-0---0-------0-|
D|----------2-2---2/4----4\2-2-2-2-2---2/4---------0h2--2---2---0-0-0-0-2-0-2-----2-|
A|------------------------------------------------------2---2-----------2---2-2-2-2-|
E|------------------------------------------------------0-0-0-0---------0---0-0-0-0-|

e|-------3----------0-0-0------------0---0-------------------------2-2-2-2-0-0-|
B|-----3---3---3\0--2-2-2-----3------2---2---2-----3-------------0-3-3-3-3-0-2-|
G|-----------0-0----0-0---0---0--0---0-0-0-0-0-------4\2p0-------0-2-2-2-2-0-0-|
D|-2/4--------------2-2---2/4----4\2-2-2-2-2---2/4---------0h2-2-2-0-0-0-0---2-|
A|-------------------------------------------------------------2-2-------------|
E|-------------------------------------------------------------0-0-------------|


[Verse]

e|---------------------------------------------------------------------|
B|---------------------------------------------------------------------|
G|---------------------------------------------------------------------|
D|---5-----5-----5------1-----1-----1------2-----2-----2---2-----4p2-0-|
A|-----5-----5------------0-----0------------0-----0---------0---------|
E|-3-----3-----3------2-----2-----2------0-----0-----0---0-----0----0--|

e|----------------------------------------------------------------------|
B|----------------------------------------------------------------------|
G|---------------------------------------------------------\4-4-4-4p2/7-|
D|---5-----5-----5------1-----1-----1------2-----2-----2----------------|
A|-----5-----5------------0-----0------------0-----0--------------------|
E|-3-----3-----3------2-----2-----2------0-----0-----0---0--------------|

e|------------------------------------------------------------------|
B|------------------------------------------------------------------|
G|------------------------------------------------------------------|
D|---5-----5-----5------1-----1-----1------2-----2-----2--4--5--4-0-|
A|-----5-----5------------0-----0------------0-----0----------------|
E|-3-----3-----3------2-----2-----2------0-----0-----0---0--0--0----|

e|---------------------------------------------------------------|
B|---------------------------------------------------------------|
G|---------------------------------------------------------------|
D|---5-----5-----5------1-----1-----1------2-----2-----2---------|
A|-----5-----5------------0-----0------------0-----0-----2-2-2-2-|
E|-3-----3-----3------2-----2-----2------0-----0-----0---0-2-3-0-|


[Chorus]

e|-0-0-0------------0---0------------------------------------------------7\5-5-5--5-|
B|-2-2-2-----3------2---2---2-----3----------------0---3-0-0-0---0-----0-8\7-7-7--7-|
G|-0-0---0---0--0---0---0-0-0-------4\2p0----------0---0-0-0-0---0-----0--------7-7-|
D|-2-2---2/4----4\2-2-2-2-2---2/4---------0h2--2---2---0-0-0-0-2-0-2---2------------|
A|---------------------------------------------2---2-----------2---2---2------------|
E|---------------------------------------------0-0-0-0---------0---0-0-0------------|

e|-0-0-0------------0---0--------------------------2-2-2-2-0-0----------|
B|-2-2-2-----3------2---2---2-----3--------------0-3-3-3-3-0-2----------|
G|-0-0---0---0--0---0---0-0-0-------4\2p0--------0-2-2-2-2-0-0----------|
D|-2-2---2/4----4\2-2-2-2-2---2/4---------0h2--2-2-0-0-0-0---2----------|
A|---------------------------------------------2-2--------------2-2-2-2-|
E|---------------------------------------------0-0--------------0-2-3-0-|


[Bridge]

e|--------------------------------------------------------------------------------------------|
B|--------------------------------------------------------------------------------------------|
G|--------------------------------------------------------------------------------------------|
D|--------------------------------------------------------------------------------------------|
A|-10-10-10-10-10-10-10-10--13-13-13-13-13-13-13-13--12-12-12-12-12-12-12-12--9-9-9-9-9-9-9-9-|
E|-8--8--8--8--8--8--8--8---11-11-11-11-11-11-11-11--10-10-10-10-10-10-10-10--7-7-7-7-7-7-7-7-|

e|------------------------------------------------------------------------------------|
B|------------------------------------------------------------------------------------|
G|------------------------------------------------------------------------------------|
D|----------------------------------------------------------------------------9-9-9-9-|
A|-10-10-10-10-10-10-10-10--13-13-13-13-13-13-13-13--12-12-12-12-12-12-12-12--9-9-9-9-|
E|-8--8--8--8--8--8--8--8---11-11-11-11-11-11-11-11--10-10-10-10-10-10-10-10--7-7-7-7-|

e|---------------------------------------------------------------------------------------------------|
B|---------------------------------------------------------------------------------------------------|
G|---------------------------------------------------------------------------------------------------|
D|---------------------------------------------------------------------------------------------------|
A|-10-10-10-10-10-10-10-10--13-13-13-13-13-13-13-13--12-12-12-12-12-12-12-12-12-12-12-12-12-12-12-12-|
E|-8--8--8--8--8--8--8--8---11-11-11-11-11-11-11-11--10-10-10-10-10-10-10-10-10-10-10-10-10-10-10-10-|

e|----0------------------|
B|----0------------------|
G|----0------------------|
D|-----------------------|
A|-11------------2-2-2-2-|
E|-9----9brbr-8~-0-2-3-0-|


[Solo]

e|-12--------------------------------------------------------------------------------|
B|-15b(17)----15\17-15----17b(21)-14~---15p14----------------------------------------|
G|--------------------------------------------16---14--------------------------------|
D|----------------------------------------------------17~-2-2-2/4-4-4/5-5/7-7/9-9-11-|
A|-----------------------------------------------------------------------------------|
E|-----------------------------------------------------------------------------------|

e|---------------------------------------------------------------------------|
B|---------------------------------------------------------12-12----12----12-|
G|-----------------11b(12)-----------12b(13)r12------------12-12----12h14-12-|
D|-11h12-14--12-14---------11~-12-14------------14-12-14---------14----------|
A|---------------------------------------------------------------------------|
E|---------------------------------------------------------------------------|

e|---------------------------------------12~-------------------------------------|
B|------------------------------------12-12~-------------------------------------|
G|-14b(16)r14p12----12-14-14b(16)-14~--------12----------12-14-14b(16)r14-12-----|
D|---------------14~----------------------------14~---14---------------------14~-|
A|-------------------------------------------------------------------------------|
E|-------------------------------------------------------------------------------|

e|--------------------------------------------------------------------------|
B|--------------------------------------------------------15b(17)-15----15~-|
G|-12-14-14b(16)-12h14-12—12-14b(16)-12h14p12----12-14-16------------16-----|
D|--------------------------------------------14----------------------------| 
A|--------------------------------------------------------------------------|
E|--------------------------------------------------------------------------|

e|-12--12-12--12-12--12--12--12--12--12-12--12--12-12-12--12-|
B|-15b----15b----15b-15b-15b-15b-15b--------15b-------15b----|
G|-----------------------------------------------------------|
D|-----------------------------------------------------------|
A|-----------------------------------------------------------|
E|-----------------------------------------------------------|

e|-12--12--12--12--12--12--12--12--12--12--12--12--12--12--12--12--12—12-12-12-------------|
B|-15b-15b-15b-15b-15b-15b-15b-15b-15b-15b-15b-15b-15b-15b-15b-15b-15b------15b(17)r15-12~-|
G|-----------------------------------------------------------------------------------------|
D|-----------------------------------------------------------------------------------------|
A|-----------------------------------------------------------------------------------------|
E|-----------------------------------------------------------------------------------------|

e|-15b(17)-15-12h15p12----12-----------------------------------------------------------|
B|---------------------15----15-15b(17)r15-17-15-15p14----14---------------------------|
G|-----------------------------------------------------14----14-12-14-14b(16)r14-12-14-|
D|-------------------------------------------------------------------------------------|
A|-------------------------------------------------------------------------------------|
E|-------------------------------------------------------------------------------------|

e|----------------------------------|
B|----------------------------------| 
G|-14b(16)-pb(16)r14p12-14-12\11\9~-|
D|----------------------------------|
A|----------------------------------|
E|----------------------------------|


[Verse]

e|-------------------------------------xxxxx------------------------------------------|
B|-------------------------------------xxxxx------------------------------------------| 
G|-------------------------------------xxxxx------------------------------------------|
D|-0-1-2---0-1-2-4p2-0--0-1-2---0-1-2--xxxxx--5-5-1-1-2-2-2-2--5-5-1-1-2-2-2-2-4p2-0--|
A|-------------------------------------xxxxx--5-5-x-x-2-2-2-2--5-5-x-x-2-2-2-2--------|
E|-3-2-0---3-2-0--------3-2-0---3-2-0--xxxxx--3-3-2-2-0-0-0-0--3-3-2-2-0-0-0-0--------|

e|------------------------------------------------------------------------|
B|------------------------------------------------------------------------|
G|------------------------------------------------------------------------|
D|---5-----5-----5------1-----1-----1------2-----2-----2---2-----2----2---|
A|-----5-----5------------0-----0------------0-----0---------0-----0------|
E|-3-----3-----3------2-----2-----2------0-----0-----0---0-----0-----0----|

e|---------------------------------------------------------------|
B|---------------------------------------------------------------|
G|---------------------------------------------------------------|
D|---5-----5-----5------1-----1-----1------2-----2-----2---------|
A|-----5-----5------------0-----0------------0-----0-----2-2-2-2-|
E|-3-----3-----3------2-----2-----2------0-----0-----0---0-2-3-0-|


[Bridge]

e|--------------------------------------------------------------------------------------------|
B|--------------------------------------------------------------------------------------------|
G|--------------------------------------------------------------------------------------------|
D|--------------------------------------------------------------------------------------------|
A|-10-10-10-10-10-10-10-10--13-13-13-13-13-13-13-13--12-12-12-12-12-12-12-12--9-9-9-9-9-9-9-9-|
E|-8--8--8--8--8--8--8--8---11-11-11-11-11-11-11-11--10-10-10-10-10-10-10-10--7-7-7-7-7-7-7-7-|

e|------------------------------------------------------------------------------------|
B|------------------------------------------------------------------------------------|
G|------------------------------------------------------------------------------------|
D|----------------------------------------------------------------------------9-9-9-9-|
A|-10-10-10-10-10-10-10-10--13-13-13-13-13-13-13-13--12-12-12-12-12-12-12-12--9-9-9-9-|
E|-8--8--8--8--8--8--8--8---11-11-11-11-11-11-11-11--10-10-10-10-10-10-10-10--7-7-7-7-|

e|---------------------------------------------------------------------------------------------------|
B|---------------------------------------------------------------------------------------------------|
G|---------------------------------------------------------------------------------------------------|
D|---------------------------------------------------------------------------------------------------|
A|-10-10-10-10-10-10-10-10--13-13-13-13-13-13-13-13--12-12-12-12-12-12-12-12-12-12-12-12-12-12-12-12-|
E|-8--8--8--8--8--8--8--8---11-11-11-11-11-11-11-11--10-10-10-10-10-10-10-10-10-10-10-10-10-10-10-10-|

e|-----------------------|
B|-----------------------|
G|-----------------------|
D|-----------------------|
A|-11------------2-2-2-2-|
E|-9----9brbr-8~-0-2-3-0-|

e|--------------------------------------------------------------------------------------------|
B|--------------------------------------------------------------------------------------------|
G|--------------------------------------------------------------------------------------------|
D|--------------------------------------------------------------------------------------------|
A|-10-10-10-10-10-10-10-10--13-13-13-13-13-13-13-13--12-12-12-12-12-12-12-12--9-9-9-9-9-9-9-9-|
E|-8--8--8--8--8--8--8--8---11-11-11-11-11-11-11-11--10-10-10-10-10-10-10-10--7-7-7-7-7-7-7-7-|

e|------------------------------------------------------------------------------------|
B|------------------------------------------------------------------------------------|
G|------------------------------------------------------------------------------------|
D|----------------------------------------------------------------------------9-9-9-9-|
A|-10-10-10-10-10-10-10-10--13-13-13-13-13-13-13-13--12-12-12-12-12-12-12-12--9-9-9-9-|
E|-8--8--8--8--8--8--8--8---11-11-11-11-11-11-11-11--10-10-10-10-10-10-10-10--7-7-7-7-|

e|---------------------------------------------------------------------------------------------------|
B|---------------------------------------------------------------------------------------------------|
G|---------------------------------------------------------------------------------------------------|
D|---------------------------------------------------------------------------------------------------|
A|-10-10-10-10-10-10-10-10--13-13-13-13-13-13-13-13--12-12-12-12-12-12-12-12-12-12-12-12-12-12-12-12-|
E|-8--8--8--8--8--8--8--8---11-11-11-11-11-11-11-11--10-10-10-10-10-10-10-10-10-10-10-10-10-10-10-10-|

e|-------------------------------------------------------------0~-|
B|-------------------------------------------------------------0~-|
G|-------------------------------------------------------------0~-|
D|-------9-------------------0-9-9b(10)r9--------9-------------5~-|
A|—11-12—--12-11h12-11-10-12------------------12—--12-11h12-11-3~-|
E|-9-------------------8------------------8-9---------------------|



************************************

| x   Dead note
| (n) Ghost note
| h   Hammer-on
| p   Pull-off
| r   Release
| b   Bend
| br  Bend release
| pb  Pre-bend
| /   Slide up
| \   Slide down
| ~   Vibrato
************************************

            
            
Suggest correction
Creating personal tab
Creating personal tab
You can edit any tab online and save it as your Personal.

You can edit, replace or remove any tab part or add personal notes – all changes will be seen only by you.

Personal tabs can be accessed anytime from any device, even offline.
Learn more »
comments
print report bad tab
5 comments total. Showing first comments.
+2 reply
freekeigenraam 10 Jul 16, 2016 03:10 AM

what kind of effects/pedals do u recommend for this song?

+5 reply
noodles_wazaman 150 Jul 23, 2016 11:03 PM

Heaps of delay / reverb for the solo - Just google to find out what David Gilmour's setup was back in the day with Pink Floyd - even HS say this tune is a blatant nod to Pink Floyd

+2 reply
alj234 10 Oct 10, 2016 12:57 PM

so pleased to of found a great tab thanks man good effort!

guest
You may want to rate the tab now too:
select rating
Wanna post a correction for this tab? Suggest correction