Oops, an error
Loading. Please wait.

Whos That Girl tab

version 2
version 2

Whole song

1,970 views 1 this week
no commentswrite comment
1 2 3 4 5
3 more votes to show rating
add to favorites
×
Save as Personal and add changes to this tab that will be seen only by you. Learn more ›
×
You can save this tab as Personal to edit and correct it or add notes. All changes will be seen only by you. Learn more »
launch autoscroll
font size
0
reset
how to read this tab
guitar tuner
edit
Autoscroll
slow
fast
+/-
esc
set tempo
stop
standard tuning, capo on first fret.


INTRO:
|------6-5-----5-3-|------3-0---------|------6-5-----5-3-|-0-----------------|
|------------------|--------------3---|------------------|-4-----------------|
|----7-------5-----|----3-------5---5-|----7-------5-----|-3-----------------|
|--5-------3-------|--0-------3-------|--5-------3-------|-0-----------------|
|------------------|------------------|------------------|-------------------|
|------------------|------------------|------------------|-------------------|

VERSE:

|------3-3-----3---|------0-----------|
|----3-------0---0-|--------------3---|
|------------------|----3---3---5---5-|       <----Do this 3 times
|--5-------3-------|--0-------3-------|
|------------------|------------------|
|------------------|------------------|

|------------------|------------------|
|------4-3-----4-3-|--4---------------|
|------------------|--3---------------|
|----5-------5-----|--0---------------|   <-- do this once before the chorus
|--3-------0-------|------------------|
|------------------|------------------|

CHORUS:
 Who's That Girl....
|------------------|-----------------------0--------------|-0-------------------0---------------|
|------------------|------------------0----4------------0-|-3--------------0----0-------------0-|
|------------------|------------------0----3------------0-|-3--------------0----2-------------0-|
|------------------|--5---------------0----0------------0-|-3--------------0----3-------------0-|
|------------------|--5---------------0-----------------0-|-0--------------0----3-------------0-|
|------------------|--3---------------------------------------------------------0---------------|

^^^^listen to the song for the strumming pattern. the "0000" is played the last time you 
the chord. this part happens three times^^^

after you do it three times, do this:

|--1------------------------|--1-----------------------|
|--4------------------------|--1-----------------------|
|--3------------------------|--2-----------------------|
|--1------------------------|--3-----------------------|
|---------------------------|--3-----------------------|
|---------------------------|--1-----------------------|

^^^this happens once, right after She says "By the way.."
listen for the strumming pattern of the first chord, and only strum the second one once.

After the chorus, do the intro again, and then the verse, and the chorus.

BRIDGE:
the bridge starts with the first bar of the intro, and then this happens:
|----------------|------------------|------------------|-----------------|
|--3-------------|--3---------------|-3----------------|--3--------------|
|--3-------------|--3---------------|-3----------------|--3--------------|
|--5-------------|--5---------------|-5----------------|--5--------------|
|--3-------------|--3---------------|-5----------------|--5--------------|
|----------------|------------------|-3----------------|--0--------------|

|--0-------------|--4----------------|--4---------------|
|--3------3------|--3----------------|--3---------------|
|--4------3------|--0----------------|--0---------------|
|--0------5------|--0----------------|--0---------------|
|---------3------|--0----------------|--0---------------|
|----------------|--4----------------|--4---------------|


^^listen for the strumming pattern (it's just strum all the downs)
the last chord is only strummed once

after this the chorus happens once more, and then in the intro again.

            
            
Suggest correction
Creating personal tab
Creating personal tab
You can edit any tab online and save it as your Personal.

You can edit, replace or remove any tab part or add personal notes – all changes will be seen only by you.

Personal tabs can be accessed anytime from any device, even offline.
Learn more »
Give kudos to tab author, rate the tab!
1 2 3 4 5
comments
print report bad tab
guest
Wanna post a correction for this tab? Suggest correction