Oops, an error
Loading. Please wait.

Lies In My Head chords

by Hilera
227 views 1 this week
no commentswrite comment
1 2 3 4 5
2 more votes to show rating
add to favorites
×
Save as Personal and add changes to this tab that will be seen only by you. Learn more ›
×
You can save this tab as Personal to edit and correct it or add notes. All changes will be seen only by you. Learn more »
launch autoscroll
font size
0
reset
transpose
0
reset
simplify chords
display chords
guitar tuner
edit
Autoscroll
slow
fast
+/-
esc
set tempo
stop
Author
Tabbers playing skills
advanced +
Strumming
There is no strumming pattern for this song yet. and get +5 IQ
lies in my head-hilera

intro
bass
e-------------------------------------------------------|
b-------------------------------------------------------|
g-------------------------------------------------------|
d-------0------0------0---------------------------------|
a--2---------2---2--------------------------------------|
E-----0---0---------0-----------------------------------|

guitar1
e-----------------------------------------------------------|
b---7-7-----------------------------------------------------|
g------9-9-9---6-6-6-6-----7-7------------------------------|
d-----------------------------9-9-9-7-7-7-------------------|2x
a-----------------------------------------------------------|
E-7---------------------3-----------------------------------|
guitar2 B5 G5

solo
bass
e-------------------------------------------------------|
b-------------------------------------------------------|
g-------------------------------------------------------|
d-------0------0------0---------------------------------|
a--2---------2---2--------------------------------------|
E-----0---0---------0-----------------------------------|

guitar1
e-----------------------------------------------------------|
b---7-7-----------------------------------------------------|
g------9-9-9---6-6-6-6-----7-7------------------------------|
d-----------------------------9-9-9-7-7-7-------------------|2x
a-----------------------------------------------------------|
E-7---------------------3-----------------------------------|

e-------------------------------------------------------|
b--7-7-7-7--8-8-8-8--10-10------------------------------|
g--------------------------7-7-7-7-7--9-9-9-------------|
d-------------------------------------------------------|
a-------------------------------------------------------|
E-------------------------------------------------------|

e-------------------------------------------------------|
b--7-7--------------------------------------------------|
g------9-9-9---6---7-7----------------------------------|
d------------------------9-9-9---7-7--9-----------------|
a-------------------------------------------------------|
E-------------------------------------------------------|


VERSE- Bm G
Tonight don’t let me fall asleep
If i do, please wake me up
Cos it comes like a thief in the night
You never know


Tonight don’t let me fall apart
If i do, please pick me up
Cos it comes like a thief in the night
You never know

INTERLUDE-D G D A D F#m D A

CHORUS- D G Em G
Cos tonight i’ll think about the words you said
Tonight i’ll think about the lies in my head

VERSE 2 Bm G

Tonight don’t even bother me
Cos i won’t even be here
So tonight just let me go
And think until my fingers bleed

solo-
Bm G 2x
D G D A D F#m D A 2X

CHORUS2 D G Em G
Tonight i’ll think about the words you said
Tonight i’ll think about the lies in my head

The lies in my ...D

            
            
Suggest correction
Creating personal tab
Creating personal tab
You can edit any tab online and save it as your Personal.

You can edit, replace or remove any tab part or add personal notes – all changes will be seen only by you.

Personal tabs can be accessed anytime from any device, even offline.
Learn more »
Give kudos to tab author, rate the tab!
1 2 3 4 5
comments
print report bad tab
guest
You may want to rate the tab now too:
select rating
Wanna post a correction for this tab? Suggest correction