Oops, an error
Loading. Please wait.

Rhyme Without Reason solo tab

version 1
version 1

Solo

Whole song

by Hilera
363 views 1 this week
8 commentsread comments
1 2 3 4 5
x 3
add to favorites
×
Save as Personal and add changes to this tab that will be seen only by you. Learn more ›
×
You can save this tab as Personal to edit and correct it or add notes. All changes will be seen only by you. Learn more »
launch autoscroll
font size
0
reset
how to read this tab
guitar tuner
edit
Autoscroll
slow
fast
+/-
esc
set tempo
stop
Author
Title: Rhyme Without Reason
Album: Hilera
Artist: Hilera



e|--------------------------10-10-10---------------------------------------|
B|--15-15-15-14-12-10-12-12-12-12-12-12-10-8-10-8-6-8-6-4-6-4-2-4-2-0------|
G|-------------------------------------------------------------------------|
D|-------------------------------------------------------------------------|
A|-------------------------------------------------------------------------|
E|-------------------------------------------------------------------------|

e|--------------------------10-10-----10-10-----10-10-----10-10-----10-10--|
B|-----------------17-12-12------12-10-----12-10-----12-10-----12-10-------|
G|--7-9-11-9-11-13---------------------------------------------------------|
D|-------------------------------------------------------------------------|
A|-------------------------------------------------------------------------|
E|-------------------------------------------------------------------------|

e|-------10-10-----------10-10-10-12-10----|
B|--12-10-----12-10-12-10--------------12--|
G|-----------------------------------------|
D|-----------------------------------------|
A|-----------------------------------------|
E|-----------------------------------------|

e|--12h14-14-17--12h14-14-17--12h14-14-17--12h14-14-17-19------------------|
B|-------------------------------------------------------------------------|
G|-------------------------------------------------------------------------|
D|-------------------------------------------------------------------------|
A|-------------------------------------------------------------------------|
E|-------------------------------------------------------------------------|

yan lang po ung solo paki rate or comment thx po 

Sa chorus nyan nakapa ko is Bm--D-E- un lang po...


            
            
Suggest correction
Creating personal tab
Creating personal tab
You can edit any tab online and save it as your Personal.

You can edit, replace or remove any tab part or add personal notes – all changes will be seen only by you.

Personal tabs can be accessed anytime from any device, even offline.
Learn more »
Give kudos to tab author, rate the tab!
1 2 3 4 5
comments
print report bad tab
8 comments total. Showing first comments.
0 reply
rikarikz 42 Feb 09, 2007 04:12 PM

galing pano mo nakuha yon???
thx ha kc project namin un salamat at meron na kaming tutugtugin
kuhang kuha hehehe...

0 reply
No_Falter08 2,414 Feb 19, 2007 11:27 AM

??

0 reply
No_Falter08 2,414 Mar 09, 2007 02:31 AM

ano rikarikz???pno naging tama i2??ang layoo kaya...

guest
You may want to rate the tab now too:
select rating
Wanna post a correction for this tab? Suggest correction