Oops, an error
Loading. Please wait.

Anchor solo tab

version 1
version 1

Solo

Whole song

9,634 views 6 this week
4 commentsread comments
1 2 3 4 5
x 7
add to favorites
×
Save as Personal and add changes to this tab that will be seen only by you. Learn more ›
×
You can save this tab as Personal to edit and correct it or add notes. All changes will be seen only by you. Learn more »
launch autoscroll
font size
0
reset
how to read this tab
guitar tuner
edit
Autoscroll
slow
fast
+/-
esc
set tempo
stop
Author
Difficulty
intermediate
C#m
e|---------------------------|
B|-16-16-16----------17-17---|
G|----------18-18-18---------|
D|---------------------------|
A|---------------------------|
E|---------------------------|

   A
e|----------------------------|
B|----------------------------|
G|----------------------------|
D|-19-19-19-18-18-18----16-18-|
A|-------------------19-------|
E|----------------------------|

   E                       B
e|-------------------------------------------------|
B|-------------------------------------------------|
G|-------------------------------------------------|
D|-18-18-18-18-19-19-18-18-16-16-16-16-16-16-16-16-|
A|-------------------------------------------------|
E|-------------------------------------------------|

   C#m
e|---------------------------|
B|-16-16-16----------17-17---|
G|----------18-18-18---------|
D|---------------------------|
A|---------------------------|
E|---------------------------|

   A
e|----------------------------|
B|----------------------------|
G|----------------------------|
D|-19-19-19-18-18-18----16-18-|
A|-------------------19-------|
E|----------------------------|

   E                       B
e|-------------------------------------------------|
B|-------------------------16-16-16-16-16-16-16-16-|
G|-------------------16-16-------------------------|
D|-18-18-18-18-19-19-------------------------------|
A|-------------------------------------------------|
E|-------------------------------------------------|

            
            
Suggest correction
Creating personal tab
Creating personal tab
You can edit any tab online and save it as your Personal.

You can edit, replace or remove any tab part or add personal notes – all changes will be seen only by you.

Personal tabs can be accessed anytime from any device, even offline.
Learn more »
comments
print report bad tab
4 comments total. Showing first comments.
0 reply
Shadoefeenicks 41 Apr 13, 2014 05:04 PM

I played this along with the original and it only sounds right if you play it 2 frets up from what you've tabbed out. The positioning is excellent otherwise though, nice job :)

0 reply
Shadoefeenicks 41 Apr 13, 2014 05:15 PM

Here's my correction based on playing with the studio recording.

C#m
E---------------------------|
B-16-16-16----------17-17---|
G----------18-18-18---------|
D---------------------------|
A---------------------------|
E---------------------------|

E----------------------------|
B----------------------------|
G----------------------------|
D-19-19-19-18-18-18----16-18-|
A-------------------19-------|
E----------------------------|

E B
E-------------------------------------------------|
B-------------------------------------------------|
G-------------------------------------------------|
D-18-18-18-18-19-19-18-18-16-16-16-16-16-16-16-16-|
A-------------------------------------------------|
E-------------------------------------------------|

C#m
E---------------------------|
B-16-16-16----------17-17---|
G----------18-18-18---------|
D---------------------------|
A---------------------------|
E---------------------------|

E----------------------------|
B----------------------------|
G----------------------------|
D-19-19-19-18-18-18----16-18-|
A-------------------19-------|
E----------------------------|

E B
E-------------------------------------------------|
B-------------------------16-16-16-16-16-16-16-16-|
G-------------------16-16-------------------------|
D-18-18-18-18-19-19-------------------------------|
A-------------------------------------------------|
E-------------------------------------------------|

0 reply
xxmrblonde 263 May 06, 2014 09:07 AM, edited on May 12 2014, 02:55 pm

What key are you play that in though? The studio version is in F#. In which case your tab is correct. Mine is set with the Live version in the key of E hence everything being 1 whole steps lower.

guest
You may want to rate the tab now too:
select rating
Wanna post a correction for this tab? Suggest correction