Oops, an error
Loading. Please wait.

Beneath The Waters I Will Rise tab

685 views 6 this week
1 commentread comment
1 2 3 4 5
2 more votes to show rating
add to favorites
×
Save as Personal and add changes to this tab that will be seen only by you. Learn more ›
×
You can save this tab as Personal to edit and correct it or add notes. All changes will be seen only by you. Learn more »
launch autoscroll
font size
0
reset
how to read this tab
guitar tuner
edit
Autoscroll
slow
fast
+/-
esc
set tempo
stop
Author
Difficulty
About this tab version
This is my rendition based on the worship team resources where I currently worship. Much of the time I’m the only electric guitarist so I feel obligated to combine some of the Electric Guitar 1 and 2 parts. Really I just end up playing the most recognizable parts regardless if Electric 1 or 2. Enjoy and I’m certainly open to positive/productive feedback. Was this info helpful? Was this info helpful? Yes No
Key: A     BPM: 74                                                 Tone: Clean/Distortion with sustain
Ele Guitar 2 – Rhythm                                              Effects: Whole note delay and heavy reverb 

[Intro:]  Clean
           A             A/E      A            E            F#m      F#m/E      F#m      E 
e|--7-/-9t-----|---9---9---9---9---9t---12-12-12-|-\-5t-\-4-4-4-4-/-5t-|-/-7-7-7--/--|       
B|--9-/10t-----|--12--12--12--12--10t---14-14-14-|-\-7t-\-5-5-5-5-/-7t-|-/-9-9-9--/--|
G|-------------|---------------------------------|---------------------|-------------|
D|-------------|---------------------------------|---------------------|-------------|
A|-------------|---------------------------------|---------------------|-------------|
E|-------------|---------------------------------|---------------------|-------------|

[Verse 1:]  Rest
       A              A/E       A                             E     F#m    F#m/E     F#m     E
    This is my revela - tion, Christ Jesus cruci   - fied
    Salvation through repen - tance, At the cross on which He died
    
[Verse 2:]   Distortion  
    A              A/E        A                            E     F#m    F#m/E     F#m    E        
    Now hear my absolution, Forgiveness for my sin
    And I sink beneath the waters  that Christ was buried in
e|--------------------|-----------------------|---------------------------------------------|       
B|--------------------|-----------------------|---------------------------------------------|
G|--------------------|-----------------------|----6---6---6---6------6---6----------11---9-|
D|--------------------|-----------------------|------------------9-----------7-/-9----------|
A|--------------------|-----------------------|---9---9---9---9------9---9------------------|
E|--------------------|-----------------------|---------------------------------------------|

[Chorus:]   Hold on D first time, second time play on beat          
                 D               A            E               
    I will rise,   I will rise,      As     Christ was raised to life    
e|-------------|-10------------|-12-------|---12--------------------|     
B|-------------|-7-------------|-10-------|---9---—-----------------|
G|-------------|-7-------------|-9--------|---9---------------------|
D|-------------|-7-------------|-11-------|---9---------------------|
A|-------------|---------------|----------|-------------------------|
E|-------------|---------------|----------|-------------------------|
   F#m               D                   A           E       
        Now in Him,     now in    Him       I  live
e|-12--------------|-10---------------|--12---------|-12------|     
B|-10--------------|-7----------------|--10---------|-9-------|
G|-9---------------|-7----------------|--9----------|-9-------|
D|-11--------------|-7----------------|--11---------|-9-------|
A|-----------------|------------------|-------------|---------|
E|-----------------|------------------|-------------|---------|

[Verse 3:]   Clean
    A           A/E      A       E       F#m    F#m/E    F#m     E 
          I stand a new  creation, Baptized in blood and fire
    No fear of condemnation, By faith I'm justified    
e|--7--/--9t----9t---|--9t------12t---|--5t-----4t-----|-5t------7t--|       
B|--9--/--10t---12t--|--10t---—-14t---|--7t-----5t-----|-7t------9t--|
G|-------------------|----------------|----------------|-------------| 
D|-------------------|----------------|----------------|-------------|
A|-------------------|----------------|----------------|-------------|
E|-------------------|----------------|----------------|-------------|

[Chorus:]  X-2

[Bridge 1]:   
Rest
    D                                                A                         
             I  rise  as  You  are  risen,  Declare  Your rule and reign
       Your Word it stands eternal, Your Kingdom knows no end
    E                                                 F#m7
             My life confess Your Lordship, And glorify Your Name
          Your praise goes on forever,  And on and  on  again

[Bridge 2:]  
Play on beat – Heavy Distortion & loud
      D                                 A
             No power can stand against You,   No curse assault Your throne
e|----2---2---2---2---2---2---2---2---|-0---0---0---0---0---0---0---0--|       
B|----3---3---3---3---3---3---3---3---|-2---2---2---2---2---2---2---2--|
G|----2---2---2---2---2---2---2---2---|-2---2---2---2---2---2---2---2--| 
D|----0---0---0---0---0---0---0---0---|-0---0---0---0---0---0---0---0--|
A|------------------------------------|--------------------------------|
E|------------------------------------|--------------------------------|
     E                                               F#m7
             No one can steal Your glory, For it is Yours alone
e|---------------------------------|-------------------------------------------------|       
B|---0-----0-----0-----0-----0-----|-0-----0-----0-----2---2---2---2---2---2---2---2-|
G|---1-----1-----1-----1-----1-----|-1-----1-----1-----2---2---2---2---2---2---2---2-| 
D|---2-----2-----2-----2-----2-----|-2-----2-----2-----2---2---2---2---2---2---2---2-|
A|---2-----2-----2-----2-----2-----|-2-----2-----2-----x---x---x---x---x---x---x---x-|
E|---0-----0-----0-----0-----0-----|-0-----0-----0-----2---2---2---2---2---2---2---2-|
    D                                                 A
             I stand to sing Your praises,  I stand to testify  
e|---12-12---12-12---12-12---12-12--|-12---12-12---12-12---12-12---12-12---12--|       
B|---12-14---12-14---12-14---12-14--|-12---12-14---12-14---12-14---12-14---12--|
G|---14-14---14-14---14-14---14-14--|-14---14-14---14-14---14-14---14-14---14--| 
D|----------------------------------|------------------------------------------|
A|----------------------------------|------------------------------------------|
E|----------------------------------|------------------------------------------|
    E                                 E
             For   I   was   dead  in  my  sin    
e|---12-12---12-12---12-12---12-12--|-12---14-14-14-14-14-14-14-14---12--|       
B|---12-12---12-12---12-12---12-12--|-12---12-12-12-12-12-12-12-12---15--|
G|---13-14---13-14---13-14---13-14--|-13---13-13-13-13-13-13-13-13---14--| 
D|----------------------------------|--------------------------------12--|
A|----------------------------------|------------------------------------|
E|----------------------------------|------------------------------------|

[Chorus:]    Rest

[Chorus:]    Play

[Chorus:]    Rest

End:    D  
e|-----10------|     
B|-----7-------|
G|-----7-------|
D|-----7-------|
A|-------------|
E|-------------|



************************************

| t  Tapping
| /  Slide up
| \  Slide down
| x  Dead note

************************************

            
            
Suggest correction
Creating personal tab
Creating personal tab
You can edit any tab online and save it as your Personal.

You can edit, replace or remove any tab part or add personal notes – all changes will be seen only by you.

Personal tabs can be accessed anytime from any device, even offline.
Learn more »
Give kudos to tab author, rate the tab!
1 2 3 4 5
comments
print report bad tab
1 comment total.
0 reply
exsendexpress 10 Feb 06, 2017 10:25 PM

I dont get the right sound, you can check out this tab https://www.youtube.com/watch?v=sPiMKgosqX8

guest
You may want to rate the tab now too:
select rating
Wanna post a correction for this tab? Suggest correction