Oops, an error
Loading. Please wait.

In God We Trust tab

version 1
version 1

Whole song

1,108 views 12 this week
no commentswrite comment
1 2 3 4 5
3 more votes to show rating
add to favorites
×
Save as Personal and add changes to this tab that will be seen only by you. Learn more ›
×
You can save this tab as Personal to edit and correct it or add notes. All changes will be seen only by you. Learn more »
launch autoscroll
font size
0
reset
how to read this tab
guitar tuner
edit
Autoscroll
slow
fast
+/-
esc
set tempo
stop
Author
Difficulty
-------------------------------------------------------------------------------
                             In God We Trust 
                              Hillsong Live
-------------------------------------------------------------------------------
Tabbed by:  mikeswimby
E-mail:  mikeswimby@me.com

Tuning:  Standard


Guitar 1:

Intro/Outro/Instrumental:
   
   Gmaj7                        D
e|----------------------------------------------------------|
B|--7--7--7--x-x--10--10-/-12---7--7--7--5--7--10--10-/-12--|
G|----------------------------------------------------------|
D|--4--4--4--x-x--7---7--/-9----4--4--4--------7---7----9---|
A|----------------------------------------------------------|
E|----------------------------------------------------------|

    A                            Bm       A                  Gmaj7
e|--------------------------------------------------------||  -----|
B|--7--7--7--5--7--10--10-/-12---7--7--7--5--7--5-\-3-5---||  --7--|
G|-------------------------------------------------------O||  -----|
D|--4--4--4--------7---7----9----4--4--4------------------||  --4--|
A|-------------------------------------------------------O||  -----|
E|--------------------------------------------------------||  -----|


Verse:
                     |----let ring----|
   Gmaj7  D  A  Bm   Gmaj7  D  A  Bm  A
e|-------------------2------0------------|
B|-------------------0------3--2--3---2--|
G|-------------------0------2--2--4---2--|
D|-------------------0------0--2--4---2--|
A|-------------------2---------0--2---0--|
E|-------------------3-------------------|


Chorus:
   |---strum--------|
    G   D   A  Bm A
e|--10--10--5--7--5---|
B|--10--10--5--7--5---|
G|--12--11--6--7--6---|
D|--12--12--7--9--7---|
A|--------------------|
E|--------------------|

Bridge:

    D                         F#m               Bm                A
e|------------------------------------------------------------------------------------||
B|------------------------------------------------------------------------------------||
G|--------11-----------11---------2--------2--------7--------7--------6---------6----O||
D|------------------------------------------------------------------------------------||
A|-----------------------------------------------------------------------------------O||
E|--10-10----10--10-10----10--2-2---2--2-2---2--7-7---7--7-7---7--5-5---5---5-5---5---||


****************************************************************************************

Guitar 2:

Intro/Outro/Instrumental:
  |----strum-------------|
    Gmaj7  D   A   Bm A
e|--2------2--------------||
B|--0------3---2---3--2---||
G|--0------2---2---4--2--O||
D|--0------0---2---4--2---||
A|--2----------0---2--0--O||
E|--3---------------------||


Verse:

    Gmaj7           D                   A               Bm
e|---------------------------------------------------------------------------|
B|---------------------------------------------------------------------------|
G|------4-------4--------11--------11-------6-------6-------7-------7--------|
D|----0---0---0---0----0----0----0----0---0---0---0---0---0---0---0---0------|
A|---------------------------------------------------------------------------|
E|--3-------3-------10--------10--------5-------5-------7-------7------------|


    Gmaj7           D                   A               Bm              A
e|-----------------------------------------------------------------------------|
B|-----------------------------------------------------------------------------|
G|------4-------4--------11--------11-------6-------6-------7-------7-----6----|
D|----0---0---0---0----0----0----0----0---0---0---0---0---0---0---0---0-----0--|
A|-----------------------------------------------------------------------------|
E|--3-------3-------10--------10--------5-------5-------7-------7-------5------|


Chorus:

  |----strum--------|
    G  D   A   Bm A
e|--2--2--------------||
B|--0--3---2---3--2---||
G|--0--2---2---4--2--O||
D|--0--0---2---4--2---||
A|--2------0---2--0--O||
E|--3-----------------||

Bridge:
   |---let ring---|
    D  F#m  Bm  A
e|--2--2----2-------||
B|--3--2----3---2---||
G|--2--2----4---2--O||
D|--0--4----4---2---||
A|-----4----2---0--O||
E|-----2------------||


************************************

Chords:


Verse1:

    Gmaj7
Overwhelmed but I won’t break
            D
Through the battle I will say
     A
Your grace will be enough
     Bm
Your grace will be enough
      Gmaj7
Under fire but we won’t fall
        D
We will never be alone
       A
You’ll always be enough
       Bm        A
You’ll always be enough


Chorus:
       G
Now in God we trust
       D
In His Name we hope
   A                   Bm     A
I know God will not be shaken
       G             
God is here with us
       D
He’s already won
  A                    Bm     A
I know God will not be shaken


Verse2:
        Gmaj7
We will follow where You go
        D
We will trust through the unknown
  A
I know You go before
  Bm
I know You go before
        Gmaj7
Lead my heart now in Your ways
          D
For we’re carrying Your Name
     A
Your promise never fails
     Bm             A
Your promise never fails


Instrumental:
| Gmaj7 | D | A | Bm A |


Bridge:
D
You’ll finish what You’ve begun
F#m                        Bm
Forever strong in Your love
     A
Your Name is sure
D
And You will fight for us
F#m                        Bm
Our hope forever secure
   A
In You alone


| /   slide up
| \   slide down
| h   hammer-on
| p   pull-off
| ~   vibrato
| +   harmonic
| x   Mute note
| b   Bend
| pb  Pre-bend
| br  Bend release
| pbr Pre-bend release
| brb Bend release bend

************************************

            
            
Suggest correction
Creating personal tab
Creating personal tab
You can edit any tab online and save it as your Personal.

You can edit, replace or remove any tab part or add personal notes – all changes will be seen only by you.

Personal tabs can be accessed anytime from any device, even offline.
Learn more »
Give kudos to tab author, rate the tab!
1 2 3 4 5
comments
print report bad tab
guest
You may want to rate the tab now too:
select rating
Wanna post a correction for this tab? Suggest correction