Oops, an error
Loading. Please wait.

Love On The Line tab

version 1
version 1

Whole song

6,532 views 201 this week
3 commentsread comments
1 2 3 4 5
x 8
add to favorites
×
Save as Personal and add changes to this tab that will be seen only by you. Learn more ›
×
You can save this tab as Personal to edit and correct it or add notes. All changes will be seen only by you. Learn more »
launch autoscroll
font size
0
reset
how to read this tab
guitar tuner
edit
Autoscroll
slow
fast
+/-
esc
set tempo
stop
Author
Difficulty
intermediate
Love On The Line
                 Hillsong Live
Tabbed by: mikeswimby
E-mail: mikeswimby@me.com
Tuning:Standard

Guitar 1:
[Intro] Played over the Em and G chords (you'll hear it)
e|------------------------------------||
B|-----8-------8-------8----------8---||
G|---0---0---0---0---0---0------0----O||
D|-9-------9-------9-------7-10------O||
A|------------------------------------||
E|------------------------------------||

[Verse] Again played over the Em and G        G               D
e|------------------------------------||   |-----------------------------||
B|-----8-------8-------8----------8---||   |------8-------8-------7------||
G|---0---0---0---0---0---0------0----O||   |----0---0---0---0---0---0----||
D|-9-------9-------9-------7-10------O||   |--9-------9-------7-------7--||
A|------------------------------------||   |-----------------------------||
E|------------------------------------||   |-----------------------------||

[Chorus]
   |----strum----|
    G   D   Em  C
e|--3---2---3---3--|
B|--3---3---3---3--|
G|--0---2---0---0--|
D|--0---0----------|
A|----------2---3--|
E|--3-------0------|

[Bridge]
                                                 |-----strum------|
    G   D   Em  C                                  G   D   Em  C
e|--3--------------|  as the bridge builds the  |--3---2---3---3--||
B|--3---3---0---1--|  inversions change a bit   |--3---3---3---3--||
G|--0---0---0---0--|                            |--0---2---0---0--||
D|--0---4---2---2--|                            |--0---0----------||
A|------5---2---3--|                            |----------2---3--||
E|--3---5---0---3--|                            |--3--------------||

***********************************************************************
Guitar 2

[Intro]
    Em
e|-----12----12----12----12----12----12----12----12----12----10----10----10--|
B|--12----12----12----12----12----12----12----12----12----12----12----12-----|
G|---------------------------------------------------------------------------|
D|---------------------------------------------------------------------------|
A|---------------------------------------------------------------------------|
E|---------------------------------------------------------------------------|

e|---------------------------------------------------------------------------|
B|-----12----12----12----12----12----12----10----10----10----10----10----10--|
G|--12----12----12----12----12----12----12----12----12----12----12----12-----|
D|---------------------------------------------------------------------------|
A|---------------------------------------------------------------------------|
E|---------------------------------------------------------------------------|

    G
e|-----12----12----12----12----12----12----12----12----12----10----10----10--|
B|--12----12----12----12----12----12----12----12----12----12----12----12-----|
G|---------------------------------------------------------------------------|
D|---------------------------------------------------------------------------|
A|---------------------------------------------------------------------------|
E|---------------------------------------------------------------------------|

e|---------------------------------------------------------------------------|
B|-----12----12----12----12----12----12----10----10----10----10----10----10--|
G|--12----12----12----12----12----12----12----12----12----12----12----12-----|
D|---------------------------------------------------------------------------|
A|---------------------------------------------------------------------------|
E|---------------------------------------------------------------------------|

[Verse]
                         |---strum---|
    Em   G                Em   G   D
e|--0----------------------0---3---2--|
B|--0----------------------0---3---3--|
G|--0------4---4---4---4---0---0---2--|
D|--2----------------------2---0---0--|
A|--2----------------------2----------|
E|--0----3---3---3---3-----0---3------|

[Chorus]
    G                       D                          Em
e|--7-7-7-7-7-7-7-7-7-7-7-7-5-5-5-5-5-5-5-5-5-8--8--8--7-7-7-7-7-7-7-7-7-7-7-7--|
B|--8-8-8-8-8-8-8-8-8-8-8-8-7-7-7-7-7-7-7-7-7-10-10-10-8-8-8-8-8-8-8-8-8-8-8-8--|
G|------------------------------------------------------------------------------|
D|------------------------------------------------------------------------------|
A|------------------------------------------------------------------------------|
E|------------------------------------------------------------------------------|

    C
e|--8-8-8-8-8-8-8-8-8-8-8-8--|
B|--8-8-8-8-8-8-8-8-8-8-8-8--|
G|---------------------------|
D|---------------------------|
A|---------------------------|
E|---------------------------|

[Bridge] the bridge builds
  (*ringing from the chorus)
                           {1 2 & 3 2 2 & 3 3 2 & 3 4 2 & 3 rhythm}..........
     G*   D        Em  

            
            
Suggest correction
Creating personal tab
Creating personal tab
You can edit any tab online and save it as your Personal.

You can edit, replace or remove any tab part or add personal notes – all changes will be seen only by you.

Personal tabs can be accessed anytime from any device, even offline.
Learn more »
comments
print report bad tab
3 comments total.
0 reply
mikeswimby 483 Nov 03, 2015 05:25 AM, edited at 10:33 am

Not sure where the rest of my tab is!?!

0 reply
mikeswimby 483 Nov 03, 2015 05:25 AM, edited at 10:32 am

Apologie guys, for some reason the whole tab isn't uploading. I'll try posting the rest below in the comments box

0 reply
mikeswimby 483 Nov 03, 2015 05:31 AM

Bridge: the bridge builds

(*ringing from the chorus)
{1 2 & 3 2 2 & 3 3 2 & 3 4 2 & 3 rhythm}..........
G* D Em <C G D
e|--(7)----------------------------------------------------------------------|
B|--(8)----------------<1----------------------------------------------------|
G|---------------------<0----------------------------------------------------|
D|--------4----7---2---<2---5-5-5-5-5-5-5-5-5-5-5-5-9-9-9-9-4-4-4-4-4-4-4-4--|
A|---------------------<3----------------------------------------------------|
E|---------------------<3----------------------------------------------------|
...................................................
Em C
e|--------------------------------------------------3-3-3-3-3-3-3-3-3-3-3-3--|
B|--------------------------------------------------3-3-3-3-3-3-3-3-3-3-3-3--|
G|--------------------------------------------------0-0-0-0-0-0-0-0-0-0-0-0--|
D|--4-4-4-4-7-7-7-7-2-2-2-2-2-2-2-2-2-2-2-2-2-2-2-2--------------------------|
A|--------------------------------------------------3-3-3-3-3-3-3-3-3-3-3-3--|
E|---------------------------------------------------------------------------|

|--------tremolo picking---------------|
G D Em C
e|--7--/10--5--/8---3--/5-/7---/12--/14-15--|
B|--8--/12--7--/10--5--/7-/8---/13--/15-15--|
G|------------------------------------------| this is played over the
D|------------------------------------------| loudest bridge sections
A|------------------------------------------|
E|------------------------------------------|

Final Chorus: its only a slight change but sounds great

G D Em
e|--7-7-7-7-7-7-5-5-5-7-7-7-5-5-5-5-5-5-5-5-5-8--8--8--7-7-7-7-7-7-7-7-7-7-7-7--|
B|--8-8-8-8-8-8-8-8-8-8-8-8-7-7-7-7-7-7-7-7-7-10-10-10-8-8-8-8-8-8-8-8-8-8-8-8--|
G|------------------------------------------------------------------------------|
D|------------------------------------------------------------------------------|
A|------------------------------------------------------------------------------|
E|------------------------------------------------------------------------------|

C
e|--8-8-8-8-8-8-8-8-8-8-8-8--|
B|--8-8-8-8-8-8-8-8-8-8-8-8--|
G|---------------------------|
D|---------------------------|
A|---------------------------|
E|---------------------------|

**********************************************************************************

Intro:
Em G

Verse1:
Em G
You put Your love on the line
Em G
To bear the weight of sin that was mine
Em G
Washing my river of wrongs
Em G D
Into the sea of Your infinite love

Chorus:
G D
With arms held high Lord I give my life
Em C
Knowing I'm found in Christ, In Your love forever
G D
With all I am in Your grace I stand
Em
The greatest of all romance
C
Love of God my Saviour

Verse2:
Em G
Mercy roars like hurricane winds
Em G D
Furious love laid waste to my sin

Bridge:
G
To the one who has rescued my soul
D
To the one who has welcomed me home
Em
To the one who is Saviour of all
C
I sing forever

************************************

| / slide up
| \ slide down
| h hammer-on
| p pull-off
| ~ vibrato
| + harmonic
| x Mute note
| b Bend
| pb Pre-bend
| br Bend release
| pbr Pre-bend release
| brb Bend release bend
| < Volume swell

************************************

guest
You may want to rate the tab now too:
select rating
Wanna post a correction for this tab? Suggest correction