Oops, an error
Loading. Please wait.

All Day bass

version 1
version 1

Whole song

Interactive

25,506 views 36 this week
4 commentsread comments
1 2 3 4 5
x 15
add to favorites
×
Save as Personal and add changes to this tab that will be seen only by you. Learn more ›
×
You can save this tab as Personal to edit and correct it or add notes. All changes will be seen only by you. Learn more »
launch autoscroll
font size
0
reset
guitar tuner
edit
Autoscroll
slow
fast
+/-
esc
set tempo
stop
-------------------------------------------------------------------------------
			    All Day - Hillsong United
-------------------------------------------------------------------------------

Tabbed By : Zechariah Gill
e-mail: gillzack@hotmail.com

Tuning: standard

Intro:X4
G|------------1--------------------------------------------------------------|
D|--------2-2---2-----1-2----------------------------------------------------|
A|----1-2---------2-2---------2-1--------------------------------------------|
E|4-4---------------------2-2------------------------------------------------|

Verse I:X4
G|------------1--------------------------------------------------------------|
D|--------2-2---2-----1-2----------------------------------------------------|
A|----1-2---------2-2---------2-1--------------------------------------------|
E|4-4---------------------2-2------------------------------------------------|

Pre-Chorus:X4
G|------------1--------------------------------------------------------------|
D|--------2-2---2-----1-2----------------------------------------------------|
A|----1-2---------2-2---------2-1--------------------------------------------|
E|4-4---------------------2-2------------------------------------------------|

Intro:X2
G|------------1--------------------------------------------------------------|
D|--------2-2---2-----1-2----------------------------------------------------|
A|----1-2---------2-2---------2-1--------------------------------------------|
E|4-4---------------------2-2------------------------------------------------|

Verse II:X4
G|------------1--------------------------------------------------------------|
D|--------2-2---2-----1-2----------------------------------------------------|
A|----1-2---------2-2---------2-1--------------------------------------------|
E|4-4---------------------2-2------------------------------------------------|

Pre-Chorus:X4
G|------------1--------------------------------------------------------------|
D|--------2-2---2-----1-2----------------------------------------------------|
A|----1-2---------2-2---------2-1--------------------------------------------|
E|4-4---------------------2-2------------------------------------------------|

Chorus:X2
G|---------------------------------------------------------------------------|
D|---------------------------------------------------------------------------|
A|2-2-2-------2-2-2-------2-2-2----------------------------------------------|
E|------0-0-0-------2-2-2-------0-0-0-4-4-4-4-0-0----------------------------|

Intro:X2
G|------------1--------------------------------------------------------------|
D|--------2-2---2-----1-2----------------------------------------------------|
A|----1-2---------2-2---------2-1--------------------------------------------|
E|4-4---------------------2-2------------------------------------------------|

Verse I:(don't play anything)
G|---------------------------------------------------------------------------|
D|---------------------------------------------------------------------------|
A|---------------------------------------------------------------------------|
E|---------------------------------------------------------------------------|

Pre-Chorus:X4
G|---------------------------------------------------------------------------|
D|---------------------------------------------------------------------------|
A|----------------2-2-2-2----------------------------------------------------|
E|4-4-4-4-0-0-0-0---------2-2-2-2--------------------------------------------|

Chorus:X2
G|---------------------------------------------------------------------------|
D|---------------------------------------------------------------------------|
A|2-2-2-------2-2-2-------2-2-2----------------------------------------------|
E|------0-0-0-------2-2-2-------0-0-0-4-4-4-4-0-0----------------------------|

Bridge:X4
G|---------------------------------------------------------------------------|
D|---------------------------------------------------------------------------|
A|4-4---4---4----7-7---7---7---2---------------------------------------------|
E|----4---4---4------7---7---7-----------------------------------------------|

Silent Chorus:
G|---------------------------------------------------------------------------|
D|---------------------------------------------------------------------------|
A|2-2---------2-2-2----------------------------------------------------------|
E|---------------------------------------------------------------------------|

Rising Chorus:
G|---------------------------------------------------------------------------|
D|--------2-2-2-2---------4-4-4-4---------2-2-2-2-6-6-6-6-2-2----------------|
A|2-2-2-2---------2-2-2-2---------2-2-2-2------------------------------------|
E|---------------------------------------------------------------------------|

G|4-4-4-4---------4-4-4-4---------4-4-4-4------------------------------------|
D|--------2-2-2-2---------4-4-4-4---------2-2-2-2----------------------------|
A|---------------------------------------------------------------------------|
E|------------------------------------------------4-4-4-4-0-0----------------|

Chorus:X4
G|---------------------------------------------------------------------------|
D|---------------------------------------------------------------------------|
A|2-2-2-------2-2-2-------2-2-2----------------------------------------------|
E|------0-0-0-------2-2-2-------0-0-0-4-4-4-4-0-0----------------------------|

Then go crazy with the Intro, 10, maybe 11 times faster


| /  slide up
| \  slide down
| h  hammer-on
| p  pull-off
| ~  vibrato
| +  harmonic
| x  Mute note
===============================================================================

            
            
Suggest correction
Creating personal tab
Creating personal tab
You can edit any tab online and save it as your Personal.

You can edit, replace or remove any tab part or add personal notes – all changes will be seen only by you.

Personal tabs can be accessed anytime from any device, even offline.
Learn more »
comments
print report bad tab
4 comments total. Showing first comments.
0 reply
biga29 273 Aug 01, 2008 10:15 AM

nice tab dude. 5 stars

0 reply
Zechariah Gills 275 Aug 02, 2008 08:42 AM

thanks a lot

0 reply
vampire135 30 Dec 03, 2010 06:03 AM

very good man, im using this one for the church i go to.

guest
You may want to rate the tab now too:
select rating
Wanna post a correction for this tab? Suggest correction