Oops, an error
Loading. Please wait.

Bones tab

version 1
version 1

Whole song

  • Acoustic version - incomplete (to be updated soon).
12,423 views 6 this week
no commentswrite comment
1 2 3 4 5
x 7
add to favorites
×
Save as Personal and add changes to this tab that will be seen only by you. Learn more ›
×
You can save this tab as Personal to edit and correct it or add notes. All changes will be seen only by you. Learn more »
launch autoscroll
font size
0
reset
how to read this tab
guitar tuner
edit
Autoscroll
slow
fast
+/-
esc
set tempo
stop
-------------------------------------------------------------------------------
                         BONES - Hillsong United (as performed on 'Live In Miami' CD/DVD)
                              (link: http://www.youtube.com/watch?v=1zbx2x0Imh8)
-------------------------------------------------------------------------------
Tabbed by: _rycly ('s mate Jake)
E-mail: ryan@springmountyouth.com

Notes: Not the easiest to play (for a worship track), but definitely worth the effort. 
Joel and T-Bird really mess around with this, and variate from the tab, so just listen to 
it. Massive thanks to my friend Jake who worked this out originally.

Tuning: Standard
Capo: 9th Fret (Yes, 9th fret)


At 9th fret, the chords are C, Am and F (but they moved when I tabbed this). Fingering 
those shapes helps get the fingerpicking correct.


Intro: (occasionally, the notes in brackets are left out)

      C
e|---------------------------------------------------------------------------|
B|------------------10--------------------------------------10---------------|
G|-------9---------------9-----------9---------9--------(9)-----9----------9-|
D|----------9h11-------------9h11-----------------9h11------------9h11-------|
A|-12-------------------------------------12---------------------------------|
E|---------------------------------------------------------------------------|

      Am
e|----------------------------------------|
B|---------------------10-----------------|
G|----11----------(11)------11--------11--|    (x2)
D|---------9h11----------------9h11-------|
A|-9--------------------------------------|
E|----------------------------------------|

       F
e|---------------------10------------------|
B|-----10---------(10)------10---------10--|
G|---------9h11----------------9h11--------|    (x2)
D|-12--------------------------------------|
A|-----------------------------------------|
E|-----------------------------------------|



Verse:

 C
e|---------------------------------------------------------------------------|
B|------------------10--------------------------------------10---------------|
G|-------9---------------9-----------9---------9--------(9)-----9----------9-|
D|----------9h11-------------9h11-----------------9h11------------9h11-------|
A|-12-------------------------------------12---------------------------------|
E|---------------------------------------------------------------------------|

 Am
e|----------------------------------------|
B|---------------------10-----------------|
G|----11----------(11)------11--------11--|    (x2)
D|---------9h11----------------9h11-------|
A|-9--------------------------------------|
E|----------------------------------------|

  F
e|---------------------10------------------|
B|-----10---------(10)------10---------10--|
G|---------9h11----------------9h11--------|    (x2)
D|-12--------------------------------------|
A|-----------------------------------------|
E|-----------------------------------------|


Chorus:

Am                   F                              C
e|----------9----------------10-----------------9-----------9-----|
B|---------10----------------10----------------10----------10-----|
G|-----11-----11---------11-----11-------------9-----------9------|
D|-11-----------------12-------------------11-----11---11----11---|         (x2)
A|--------------------------------------12------------------------|
E|----------------------------------------------------------------|

F                           Am                              G
e|---------10-----------------9----------------12-----|
B|---------10----------------10----------------12-----|
G|-----11-----11---------11-----11--------------------|
D|-12-----------------11------------------9-------9---|      (return to Intro/go to Bridge)
A|----------------------------------------------------|
E|--------------------------------------12------------|


Bridge:

(by now I'm normally just strumming chords, but feel free to play something similar to 
the chorus)



I hope this helps. I appreciate any feedback you have.


God bless

            
            
Suggest correction
Creating personal tab
Creating personal tab
You can edit any tab online and save it as your Personal.

You can edit, replace or remove any tab part or add personal notes – all changes will be seen only by you.

Personal tabs can be accessed anytime from any device, even offline.
Learn more »
comments
print report bad tab
guest
You may want to rate the tab now too:
select rating
Wanna post a correction for this tab? Suggest correction