Oops, an error
Loading. Please wait.

Dios Sobre Todo tab

373 views 1 this week
no commentswrite comment
1 2 3 4 5
3 more votes to show rating
add to favorites
×
Save as Personal and add changes to this tab that will be seen only by you. Learn more ›
×
You can save this tab as Personal to edit and correct it or add notes. All changes will be seen only by you. Learn more »
launch autoscroll
font size
0
reset
how to read this tab
guitar tuner
edit
Autoscroll
slow
fast
+/-
esc
set tempo
stop
Hola Hermanos Dios Los Bendiga Hoy Les Vengo A Dar
La Tablatura Del Intro De Dios Sobre Todo de Hillsong United
y que tambien va despues de la estrofa I y el coro..

Intro:

e|------------------------------|
B|----12--19-16-----12--20-16---|
G|-15------------15-------------|
D|------------------------------|
A|------------------------------|
E|------------------------------|

e|------------------------------------------|
B|-15-16----16------------------------------|
G|-------15----14-14h15--16-15-13-15-15/16--|
D|------------------------------------------|
A|------------------------------------------|
E|------------------------------------------| x2

e|------------------------------|
B|----12--19-----12-----20------|
G|-15--------20-----15-----20---|
D|------------------------------|
A|------------------------------|
E|------------------------------|

e|------------------------------------------|
B|-15-16----16------------------------------|
G|-------15----14-14h15--16-15-13-15-15/16--|
D|------------------------------------------|
A|------------------------------------------|
E|------------------------------------------| x2

Estrofa I

  G#m
Todo pasa
   E     B    D#m
Mas tú no pasarás
   G#m
En gracia
  E        B    D#m
Tú siempre reinarás

Coro:

Coro:

 C#m7         G#m
Dios sobre todo
         B  D#m
Tú cerca estás
 C#m7         G#m
Toda rodilla
          E
Se postrará

e|------------------------------|
B|----12--19-16-----12--20-16---|
G|-15------------15-------------|
D|------------------------------|
A|------------------------------|
E|------------------------------|

e|------------------------------------------|
B|-15-16----16------------------------------|
G|-------15----14-14h15--16-15-13-15-15/16--|
D|------------------------------------------|
A|------------------------------------------|
E|------------------------------------------| x2

Estrofa II

  G#m
La injusticia
    E     B    D#m
Cargaste en la cruz
   G#m
Exaltado
    E       B    D#m
En gloria eres Jesús

Coro:

C#m7         G#m
Dios sobre todo
         B  D#m
Tú cerca estás
 C#m7         G#m
Toda rodilla
          E
Se postrará/ x2

Bueno Aqui viene El Interludio Del Teclado aqui estan las notas
para el teclado y si quieren acompañarla con la guitarra yo saque
la tablatura con mi oido.. Pruebenlo Y Me Dicen

Teclado: E-D#-B-D#-C

Guitarra:
e|-----------------------|
B|-----16----20-18-18s21-|
G|--21----16-------------|
D|-----------------------|
A|-----------------------|
E|-----------------------|

Puente: aqui sigue el interludio del teclado y si quieren lo
acompañan con la guitarra :)

      B
//El ciego ve
         C#m7
El sordo oirá
    G#m
Los muertos
         E
Se levantarán
     B
Y tú mi Dios
 C#m7           G#m E
Por siempre reinarás// x3

Aqui Sigue el interludio Del Teclado y
Mientras Tanto La Guitarra hace estos acordes
acompañando el teclado: B C#m7 G#m E B C#m7 G#m E... x4

Coro:

//C#m7         G#m
Dios sobre todo
         B  D#m
Tú cerca estás
 C#m7         G#m
Toda rodilla
          E
Se postrará// x2

Aqui Sigue El Interludio Del Teclado....

     B
//El ciego ve
         C#m7
El sordo oirá
    G#m
Los muertos
         E
Se levantarán
     B
Y tú mi Dios
 C#m7           G#m E
Por siempre reinarás// x4


Aqui continua El interludio del teclado...


   B
//El ciego ve
         C#m7
El sordo oirá
    G#m
Los muertos
         E
Se levantarán
     B
Y tú mi Dios
 C#m7           G#m E
Por siempre reinarás// x4

Y Termina Con El mismo Interludio del Teclado....x4 :D

Bueno Espero Que Les Sea De Bendicion Cualquier Cometario O Arreglo
Me Lo Pueden Enviar A Mi Correo: David_vip_94@

            
            
Suggest correction
Creating personal tab
Creating personal tab
You can edit any tab online and save it as your Personal.

You can edit, replace or remove any tab part or add personal notes – all changes will be seen only by you.

Personal tabs can be accessed anytime from any device, even offline.
Learn more »
Give kudos to tab author, rate the tab!
1 2 3 4 5
comments
print report bad tab
guest
Wanna post a correction for this tab? Suggest correction