Oops, an error
Loading. Please wait.

Kingdom Come bass

version 1
version 1

Whole song

Interactive

2,868 views 6 this week
no commentswrite comment
1 2 3 4 5
2 more votes to show rating
add to favorites
×
Save as Personal and add changes to this tab that will be seen only by you. Learn more ›
×
You can save this tab as Personal to edit and correct it or add notes. All changes will be seen only by you. Learn more »
launch autoscroll
font size
0
reset
guitar tuner
edit
Autoscroll
slow
fast
+/-
esc
set tempo
stop
Author
Difficulty
KINGDOM COME
FROM THE UNITED WE STAND ALBUM

I spent some time on this and should be accurate 
Included the timings of the various sections hope you enjoy!

--- moidage@gmail.com ---

INTRO AND VERSE1 play this 					x4
G|------------------------------------------------------------------|
D|------------------------------------------------------------------|
A|2222222222222222----------------0000000000000000------------------|
E|----------------3333333333333333----------------2222223333333333--|


PRE-CHORUS 0:51
G|------------------------------------------------------------------|
D|------------------------------------------------------------------|
A|0000000000000000--------------------------------------------------|
E|----------------3333333333333333----------------------------------|


CHORUS1 0:58
G|-------------------------------------------------------|
D|0~-----------------------------------------------------|
A|--------------------------------2~---------------------|
E|----------------3~------------------------------3~-----|

CHORUS 1
G|------------------------------------------------------------------|
D|0000000000000000--------------------------------------------------|
A|--------------------------------2222222222222222------------------|
E|----------------3333333333333333----------------3333333333333333--|

VERSE2 1:23 							X3
G|------------------------------------------------------------------|
D|------------------------------------------------------------------|
A|2222222222222222----------------0000000000000000------------------|
E|----------------3333333333333333----------------2222223333333333--|

PRE-CHORUS 2 AT 2:01
G|-------------------------------------------------------|
D|-------------------------------------------------------|
A|0000000000000000---------------------------------------|
E|----------------3333333333333333-----------------------| 

CHORUS2 2:08 
G|------------------------------------------------------------------|
D-------------------------------------------------------------------|
A|5555555555555555----------------2222222222222222------------------|
E|----------------3333333333333333----------------3333333333333333--|

G|------------------------------------------------------------------|
D|-------------------------------------9979----9979-----------------|
A|5555555555555555----------------222/-----222/---------------------|
E|----------------3333333333333333-----------------3333333333333333-|

INTERLUDE BIT 2:33 
G|--------------------------------------------------------|
D|--------------------------------------------------------|
A|--------------------------------------------------------|
E|-7~-------------3~--------------5~--------------3~------|

2:46								x2 
G|------------------------------------------------------------------|
D|------------------------------------------------------------------|
A|2222222222222222----------------0000000000000000------------------|
E|----------------3333333333333333----------------3333333333333333--|

BUILD UP BIT 3:15
G|------------------------------------------------------------------|
D|------------------------------------------------------------------|
A|0000000000000000----------------0000000000000000------------------|
E|----------------3333333333333333----------------3333333333333333--|


CHORUS3 3:24							 x2
G|------------------------------------------------------------------|
D|0000000000000000--------------------------------------------------|
A|--------------------------------2222222222222222------------------|
E|----------------3333333333333333----------------3333333333333333--|

G|------------------------------------------------------------------|
D|00000000222244445555555555555555----9979----9979------------------|
A|--------------------------------222/----222/----------------------|
E|------------------------------------------------3333333333333333--|

4:16							x2
G|--------------------------------------------------------|
D|--------------------------------------------------------|
A|--------------------------------------------------------|
E|-7~-------------3~--------------5~--------------3~------|


| /  slide up
| \  slide down
| h  hammer-on
| p  pull-off
| ~  vibrato
| +  harmonic
| x  Mute note


            
            
Suggest correction
Creating personal tab
Creating personal tab
You can edit any tab online and save it as your Personal.

You can edit, replace or remove any tab part or add personal notes – all changes will be seen only by you.

Personal tabs can be accessed anytime from any device, even offline.
Learn more »
Give kudos to tab author, rate the tab!
1 2 3 4 5
comments
print report bad tab
guest
You may want to rate the tab now too:
select rating
Wanna post a correction for this tab? Suggest correction