Oops, an error
Loading. Please wait.

Look To You bass

version 2
version 2

Whole song

900 views 1 this week
no commentswrite comment
1 2 3 4 5
3 more votes to show rating
add to favorites
×
Save as Personal and add changes to this tab that will be seen only by you. Learn more ›
×
You can save this tab as Personal to edit and correct it or add notes. All changes will be seen only by you. Learn more »
launch autoscroll
font size
0
reset
guitar tuner
edit
Autoscroll
slow
fast
+/-
esc
set tempo
stop
Difficulty
intermediate
                           LOOK TO YOU

starts off with guitar

intro/ verse (0:22)          after you got to 15 you can fill this cuz tenni
                             dosen't play the same thing evrytme
G|---------------------|-------------------------------------------|
D|-------------------X2|-----------repeat-then-do-|----------------|X2
A|---888-------888--]--|-[----888/15------6---]---V----------------|
E|666---8/--666---8-]--|-[-666------15\68-86-]---33333333-66666666-|

Pre-chorus
G|-----------------------------------------------------------------|
D|-----------------------------------------------------------------|
A|66666666-888888888-66666666-33333333-66666666-1010101010101010---|X2
E|-----------------------------------------------------------------|

slient chorus
G|-----------------------------------------------------------------|
D|--15~/17~/13~----------------------------------------------------|
A|13~----------13~11~10~-------------------------------------------|
E|----------------------11~slidedown\------------------------------|

now repeat the intro/verse

2nd pre-chorus
G|888888888-1010101010101010-88888888-55555555-8888888-1212121212121212|
D|---------------------------------------------------------------------|
A|---------------------------------------------------------------------|
E|---------------------------------------------------------------------|

then do the normal pre-chorus once

chorus (2:30)
G---------------------------------------------------------------------------|
D---------------------------------------------------------------------------|
A--------88888888-1010101010101010-66666666------------------------66666666-|
E66666666----------------------------------666666664444444433333333---------|


the piano solo is here so we play this (2:55)
G|-------------------------------------------------------------------|
D|-------------------------------------------------------------------|X2
A|-----------8--88888888108------------810866666666-8----------------|
E|66666666810-10-----------108888888810------------8-----------------|

slow pre-chorus/
G|-------------------|   then do the normal prechorus and silent chorus
D|-------------------|   play the buliding chorus half time till the drum
A|6~8~6~3~6~10~8~----|   roll on the g# to g then play the chorus and end on
E|-------------------|   13th fret on d


             GOD BLESS jesus loves you all !!!!!

            
            
Suggest correction
Creating personal tab
Creating personal tab
You can edit any tab online and save it as your Personal.

You can edit, replace or remove any tab part or add personal notes – all changes will be seen only by you.

Personal tabs can be accessed anytime from any device, even offline.
Learn more »
Give kudos to tab author, rate the tab!
1 2 3 4 5
comments
print report bad tab
guest
Wanna post a correction for this tab? Suggest correction