Oops, an error
Loading. Please wait.

No Reason To Hide bass

version 1
version 1

Whole song

Interactive

11,739 views 1 this week
5 commentsread comments
1 2 3 4 5
x 4
add to favorites
×
Save as Personal and add changes to this tab that will be seen only by you. Learn more ›
×
You can save this tab as Personal to edit and correct it or add notes. All changes will be seen only by you. Learn more »
launch autoscroll
font size
0
reset
guitar tuner
edit
Autoscroll
slow
fast
+/-
esc
set tempo
stop
Author
Difficulty
No Reason to Hide
Hillsong United
Faith + Hope + Love

Ab
4/3

Intro

G|-------------------------------------------------------------------------------|
D|-------------------------------------------------------------------------------|
A|------------------/11~---------------------------------/11~--------------------|
E|-4~--------------------------------4~-------4-4--------------------------------|

VERSE 1

G|-------------------------------------------------------------------------------|
D|-------------------------------------------------------------------------------|
A|---------------------------tacet-----------------------------------------------|
E|-4~----------------------------------------------------------------------------|

G|-------------------------------------------------------------------------------|
D|--------11-11-11-10-10-10----------11-11-11-10-10-10---------------------------|
A|-------------------------------------------------------------------------------|
E|-4--4-4---------------------4--4-4---------------------------------------------|

G|-------------------------------------------------------------------------------|
D|--------11-11-11-10-10-10----------11-11-11-10-10-10---------------------------|
A|-------------------------------------------------------------------------------|
E|-9--9-9---------------------9--9-9---------------------------------------------|

G|-------------------------------------------------------------------------------|
D|--------11-11-11-10-10-10----------11-11-11-10-10-10---------------------------|
A|-8--8-8---------------------8--8-8---------------------------------------------|
E|-------------------------------------------------------------------------------|

G|-------------------------------------------------------------------------------|
D|--------11-11-11-10-10-10------------------------------------------------------|
A|-------------------------------------------------------------------------------|
E|-9--9-9---------------------9~-------------------------------------------------|

CHORUS

G|-------------------------------------------------------------------------------|
D|-------------------------------------------------------------------------------|
A|----------------------------------------4--4-4-4--4--4-4--4--4-4-4--4--4-4-----|
E|-4-4--4-4-4--4--4-4--4-4--4-4-4--6-4-6-----------------------------------------|

G|-------------------------------------------------------------------------------|
D|-------------------------------------------------------------------------------|
A|--------/8-8-8-8----------/11-11-11-11--4--4-4-4--4--4-4--4--4-4-4--4--4-4-----|
E|-1--1-1------------4--4-4------------------------------------------------------|

POST-CHORUS

G|-------------------------------------------------------------------------------|
D|-------------------------------------------------------------------------------|
A|---------------------------/11-11-11-11-11-11----------------------------------|
E|-4-4--4-4-4--4--4-4--4-4-4---------------------4-4--4-4-4--4--4-4--4-4-4~------|

VERSE 2

G|-------------------------------------------------------------------------------|
D|--------11-11-11-10-10-10----------11-11-11-10-10-10---------------------------|
A|-------------------------------------------------------------------------------|
E|-4--4-4---------------------4--4-4---------------------------------------------|

G|-------------------------------------------------------------------------------|
D|--------11-11-11-10-10-10----------11-11-11-10-10-10---------------------------|
A|-------------------------------------------------------------------------------|
E|-9--9-9---------------------9--9-9---------------------------------------------|

G|-------------------------------------------------------------------------------|
D|--------11-11-11-10-10-10----------11-11-11-10-10-10---------------------------|
A|-8--8-8---------------------8--8-8---------------------------------------------|
E|-------------------------------------------------------------------------------|

G|-------------------------------------------------------------------------------|
D|--------11-11-11-10-10-10------------------------------------------------------|
A|-------------------------------------------------------------------------------|
E|-9--9-9---------------------9~-------------------------------------------------|

G|-------------------------------------------------------------------------------|
D|--------11-11-11-10-10-10----------11-11-11-10-10-10---------------------------|
A|-------------------------------------------------------------------------------|
E|-4--4-4---------------------4--4-4---------------------------------------------|

G|-------------------------------------------------------------------------------|
D|--------11-11-11-10-10-10--------------5---------------------------------------|
A|-----------------------------------------4-3-1---------------------------------|
E|-9--9-9---------------------9--9-9---4---------3-1-----------------------------|

G|-------------------------------------------------------------------------------|
D|--------11-11-11-10-10-10----------11-11-11-10-10-10---------------------------|
A|----------------------------8--8-8---------------------------------------------|
E|-1--1-1------------------------------------------------------------------------|

G|-------------------------------------------------------------------------------|
D|--------11-11-11-10-10-10------------------------------------------------------|
A|-------------------------------------------------------------------------------|
E|-9--9-9---------------------9~-------------------------------------------------|

CHORUS

G|-------------------------------------------------------------------------------|
D|-------------------------------------------------------------------------------|
A|----------------------------------------4--4-4-4--4--4-4--4--4-4-4--4--4-4-----|
E|-4-4--4-4-4--4--4-4--4-4--4-4-4--6-4-6-----------------------------------------|

G|-------------------------------------------------------------------------------|
D|-------------------------------------------------------------------------------|
A|--------/8-8-8-8----------/11-11-11-11--4--4-4-4--4--4-4--4--4-4--4-4-4-4-4-4--|
E|-1--1-1------------4--4-4------------------------------------------------------|

G|-------------------------------------------------------------------------------|
D|-------------------------------------------------------------------------------|
A|----------------------------------------4--4-4-4--4--4-4--4--4-4-4--4--4-4-----|
E|-4-4--4-4-4--4--4-4--4-4--4-4-4--6-4-6-----------------------------------------|

G|-------------------------------------------------------------------------------------|
D|-------------------------------------------------------------------------6-6-6-------|
A|--------/8-8-8-8----------/11-11-11-11--4--4-4-4--4--4-4--4--4-4-4-6-6-6-------8-8-8-|
E|-1--1-1------------4--4-4------------------------------------------------------------|

INTERLUDE

Notes- Mind the key change and those sixteenth notes...

G|-------------------------------------------------------------------------------|
D|-------------------------------------------------------------------------------|
A|--------------------------------------11-11-11-11-11-11------------------------|
E|-4-4-4-4-4-4-4-4-4-4-4-4-4-4-4-4-4-4-------------------------------------------|

G|-------------------------------------------------------------------------------|
D|-------------------------------------------------------------------------------|
A|--------------------------------------9-9-9-9-9-9------------------------------|
E|-2-2-2-2-2-2-2-2-2-2-2-2-2-2-2-2-2-2-------------------------------------------|

G|-------------------------------------------------------------------------------|
D|-------------------------------------------------------------------------------|
A|--------------------------------------13-13-13-13-13-13------------------------|
E|-6-6-6-6-6-6-6-6-6-6-6-6-6-6-6-6-6-6-------------------------------------------|

G|-------------------------------------------------------------------------------|
D|-------------------------------------------------------------------------------|
A|-4-4-4-4-4-4-4-4-4-4-4-4-4-4-4-4-4-4-4-4-4-4-4-4-------------------------------|
E|-------------------------------------------------------------------------------|

BRIDGE

G|-------------------------------------------------------------------------------|
D|-------------------------------------------------------------------------------|
A|---------------------------------------------------------------------4~--------|
E|-4~-----------------------2~---------------------6~----------------------------|

G|-------------------------------------------------------------------------------|
D|-------------------------------------------------------------------------------|
A|-11-11-11-11-11-11-11-11-11-11-11-11-11-11-11-11-11-11-11-11-11-11-11-11-------|
E|-------------------------------------------------------------------------------|

G|-------------------------------------------------------------------------------|
D|-------------------------------------------------------------------------------|
A|-9-9-9-9-9-9-9-9-9-9-9-9-9-9-9-9-9-9-9-9-9-9-9-9-------------------------------|
E|-------------------------------------------------------------------------------|

G|-------------------------------------------------------------------------------|
D|-------------------------------------------------------------------------------|
A|-13-13-13-13-13-13-13-13-13-13-13-13-13-13-13-13-13-13-13-13-13-13-13-13-------|
E|-------------------------------------------------------------------------------|

G|-------------------------------------------------------------------------------|
D|-11-11-11-11-11-11-11-11-11-11-11-11-11-11-11-11-11-11-11-11-11-11-11-11-------|
A|-------------------------------------------------------------------------------|
E|-------------------------------------------------------------------------------|

G|-------------------------------------------------------------------------------|
D|-------------------------------------------------------------------------------|
A|-11-11-11-11-11-11-11-11-11-11-11-11-11-11-11-11-11-11-11-11-11-11-11-11-------|
E|-------------------------------------------------------------------------------|

G|-------------------------------------------------------------------------------|
D|-------------------------------------------------------------------------------|
A|-9-9-9-9-9-9-9-9-9-9-9-9-9-9-9-9-9-9-9-9-9-9-9-9/------------------------------|
E|-------------------------------------------------------------------------------|

G|-------------------------------------------------------------------------------|
D|-------------------------------------------------------------------------------|
A|-------------------------------------------------------------------------------|
E|-6-6-6-6-6-6-6-6-6-6-6-6-6-6-6-6-6-6-6-6-6-6-6-6-------------------------------|

G|-------------------------------------------------------------------------------|
D|-------------------------------------------------------------------------------|
A|-4-4-4-4-4-4-4-4-4-4-4-4-4-4-4-4-4-4-4-4-4-4-4-4-------------------------------|
E|-------------------------------------------------------------------------------|

CHORUS

G|-------------------------------------------------------------------------------|
D|-------------------------------------------------------------------------------|
A|----------------------------------------4--4-4-4--4--4-4--4--4-4-4--4--4-4-----|
E|-4-4--4-4-4--4--4-4--4-4--4-4-4--6-4-6-----------------------------------------|

G|-------------------------------------------------------------------------------|
D|-------------------------------------------------------------------------------|
A|--------/8-8-8-8----------/11-11-11-11--4--4-4-4--4--4-4--4--4-4--4-4-4-4-4-4--|
E|-1--1-1------------4--4-4------------------------------------------------------|

G|-------------------------------------------------------------------------------|
D|-------------------------------------------------------------------------------|
A|----------------------------------------4--4-4-4--4--4-4--4--4-4-4--4--4-4-----|
E|-4-4--4-4-4--4--4-4--4-4--4-4-4--6-4-6-----------------------------------------|

G|-------------------------------------------------------------------------------|
D|-------------------------------------------------------------------------------|
A|--------/8-8-8-8----------/11-11-11-11--4--4-4-4--4--4-4--4--4-4-4--4-4--4-----|
E|-1--1-1------------4--4-4------------------------------------------------------|

OUTRO

Listen carefully for the retard....

G|-------------------------------------------------------------------------------|
D|-------------------------------------------------------------------------------|
A|--------------------------------------11-11-11-11-11-11------------------------|
E|-4-4-4-4-4-4-4-4-4-4-4-4-4-4-4-4-4-4-------------------------------------------|

G|-------------------------------------------------------------------------------|
D|-------------------------------------------------------------------------------|
A|--------------------------------------9-9-9-9-9-9------------------------------|
E|-2-2-2-2-2-2-2-2-2-2-2-2-2-2-2-2-2-2-------------------------------------------|

G|-------------------------------------------------------------------------------|
D|-------------------------------------------------------------------------------|
A|--------------------------------------13-13-13-13-13-13------------------------|
E|-6-6-6-6-6-6-6-6-6-6-6-6-6-6-6-6-6-6-------------------------------------------|

G|-------------------------------------------------------------------------------|
D|-------------------------------------------------------------------------------|
A|-4-4-4-4-4-4-4-4-4-4-4-4-4-4-4-4-4-4-4--4--4--4--4--4-----4~-------------------|
E|-------------------------------------------------------------------------------|

Fin.

            
            
Suggest correction
Creating personal tab
Creating personal tab
You can edit any tab online and save it as your Personal.

You can edit, replace or remove any tab part or add personal notes – all changes will be seen only by you.

Personal tabs can be accessed anytime from any device, even offline.
Learn more »
comments
print report bad tab
5 comments total. Showing first comments.
0 reply
biga29 273 Aug 15, 2009 11:18 AM

NIce

+1 reply
basszeros 10 Aug 28, 2009 02:22 AM

bad chorus part

0 reply
Still Breath 167 Sep 06, 2009 01:53 PM

Really? What'd I mess... Rhythm is off but I figured anyone with ears could figure it out on their own...

guest
You may want to rate the tab now too:
select rating
Wanna post a correction for this tab? Suggest correction