Oops, an error
Loading. Please wait.

Oceans bass

4,730 views 12 this week
no commentswrite comment
1 2 3 4 5
x 6
add to favorites
×
Save as Personal and add changes to this tab that will be seen only by you. Learn more ›
×
You can save this tab as Personal to edit and correct it or add notes. All changes will be seen only by you. Learn more »
launch autoscroll
font size
0
reset
guitar tuner
edit
Autoscroll
slow
fast
+/-
esc
set tempo
stop
Author
Unregistered
I haven't seen any other Bass tabs for this song so i decided to post a version we made up in our
Youth Band. Hope you guys enjoy and you can make it your own if you like.
It's not hard at all we made it pretty simple :) - Iliana

If you have any questions you can contact me at ily.vengenz@gmail.com

[INTRO/ VERSE 1]
(We played w/o Keyboards)
G |-----------------------------|-------------------------------|----|
D |--FIRST-CHORDS-MUTE----------|-------------------------------|----|
A |----------GUITAR-INTRO-SOLO--|----2-------4-5----------------|-x3-|
E |-----------------------------|--------------------5-----3----|----|

[Chorus]                      Our bass player usually played this part with more counts of each note
                              but whatever sound good works :)
G |-----------------|----|---------------------------------------------------------------------|
D |-----------------|----|---------------------------------------------------------------------|
A |-----5-----------|-x3-|-----------------------2-2-2-4-5-5-5-5-5-5-5-5-----------------------|
E |-3--------5--5---|----|-3-3-3-3-3-3-3-3-5-5-5-------------------------5-5-5-5-5-5-5-5--3-3--|

[Verse 2]
G |-----------------------------------------------------------|----|
D |-----------------------------------------------------------|----|
A |--2-22--22-2/4--5-55--55-55--------------------------------|-x2-|
E |----------------------------------5-55-55-55---3-33-33-33--|----|

[Chorus]
G |----------------------------|----|------------------------------------------------------|
D |----------------------------|----|------------------------------------------------------|
A |---------5--55--------------|-x3-|---------------------2-4--55555555--------------------|
E |-3--33--------5--55--55--55-|----|-3-33-33-33-5---5--5---------------55555555--33333333-|

[Instrumental]
G |------------------------------------------|----|-----------------------|----|
D |------------------------------------------|----|-----------------------|----|
A |--22222222--4-55555555--------------------|-x1-|---2---------5---------|-x2-|
E |-----------------------55555555-33333333--|----|---------3---------5---|----|

[Bridge]                                        Three time you hear “SPIRIT”
G |--------------------------------|----------------------------|----|
D |--------------------------------|----------------------------|----|
A |----MUTE DURING THE BRIDGE x2---|---2--------5---------------|-x2-|
E |--------------------------------|--------3---------5---------|----|

G |---------------|----|----------------|----|----------------------------------------------|----|
D |---------------|----|----------------|----|----------------------------------------------|----|
A |----5----------|-x2-|-2---4-5--------|-x2-|-2-22-22-2/4-5-55-55-55-----------------------|-x4-|
E |3-------5----3-|----|----------5---3-|----|-------------------------5-55-55-55-3-33-33-33|----|

G |-------------------------------------------|----|
D |-------------------------------------------|----|
A |-22222222-4--55555555----------------------|-x3-|
E |------------------------5555555--33333333--|----|

[Chorus]
G |------------------------------|----|----------------------|
D |------------------------------|----|----------------------|
A |-------5----------4-5---7-----|-x3-|---3-Hold-and--Mute---|
E |---3--------5---------------3-|----|----------------------|

************************************

| x  Dead note
| /  Slide up

************************************

            
            
Suggest correction
Creating personal tab
Creating personal tab
You can edit any tab online and save it as your Personal.

You can edit, replace or remove any tab part or add personal notes – all changes will be seen only by you.

Personal tabs can be accessed anytime from any device, even offline.
Learn more »
comments
print report bad tab
guest
Wanna post a correction for this tab? Suggest correction