Oops, an error
Loading. Please wait.

Oh You Bring tab

version 1
version 1

Whole song

8,184 views 12 this week
no commentswrite comment
1 2 3 4 5
x 3
add to favorites
×
Save as Personal and add changes to this tab that will be seen only by you. Learn more ›
×
You can save this tab as Personal to edit and correct it or add notes. All changes will be seen only by you. Learn more »
launch autoscroll
font size
0
reset
how to read this tab
guitar tuner
edit
Autoscroll
slow
fast
+/-
esc
set tempo
stop
-----------------------------------------------------------------------------------
                             Oh You Bring ~ Hillsong United
Artist: Hillsong United
Album: Across the Earth: Tear Down the Walls
Song: Oh You Bring

Standard Tuning:EADGBE
Capo 7th fret
Tabbed by:Yor3
Intro>Verse 1>Chorus 1>Instrumental>Verse 2>Chorus 2a>Chorus
2b>Instrumental>Bridge>Chorus 3a/3b>Outro

Intro X4                                                        BPM: 100
   G          Am  Em               D/F#
e|-0--0--0--0---0-----0----0-----0----0------------------------------------|
B|-----5--5---6----1----1----1------3--------------------------------------|
G|---0--0--0---------0----0----0-------------------------------------------|
D|-------------------------------------------------------------------------|
A|-3----------5----0----------------2--------------------------------------|
E|-------------------------------------------------------------------------|
Verse 1
   G                     D                    Am
e|-0---0----0----0-----0----0----0----0----0-----0----0----------------------|
B|-------5----5----5-----3----3----3----3-----6----6-------------------------|
G|---0-----0----0----0-----0----0----0----0-----5----5-----------------------|
D|--------------------------------------------0------------------------------|
A|-3-------------------------------------------------------------------------|
E|-----------------------3---------------------------------------------------|
   Em            C           D
e|----0-----0-------0-----0------3-----p0----------------------------------|
B|-1----1--------1-----1-----1-----p0--------------------------------------|
G|---0----0--------2-----2-----0------0------------------------------------|
D|-------------------------------------------------------------------------|
A|-0-----------------------------------------------------------------------|
E|---------------1-----------3---------------------------------------------|
-- G                     D                   Am
e|-0---0----0----0-----0----0----0----0----0-----0----0--------------------|
B|-------5----5----5-----3----3----3----3-----6----6-----------------------|
G|---0-----0----0----0-----0----0----0----0-----5----5---------------------|
D|--------------------------------------------0----------------------------|
A|-3-----------------------------------------------------------------------|
E|-----------------------3-------------------------------------------------|
   Em            C           D
e|-----0-----0-------0----0-----3------3-----------------------------------|
B|-1-----1-------1-----1-----3-----0---------------------------------------|
G|---0-----0-------2-----2-----0------0------------------------------------|
D|-------------------------------------------------------------------------|
A|-0-----0-----------------------------------------------------------------|
E|---------------1-----1-----3---------------------------------------------|
Chorus 1
   C          D          Em    D/F#    G         C          D
e|----0-----0-----3---0-------0-----0--0--0-1-0------0----0----------------|
B|-1----1-----3----0------1-----3---------------0-0h1--1----0--------------|
G|---2----2-----0----0------0-----0------0---------------2--0--------------|
D|------------------------------------------------3---------0--------------|
A|------------------------0-----2------3-----------------------------------|
E|-1----------3------------------------------------------------------------|
Instrumental
   G          Am  Em               D/F#
e|-0--0--0--0---0-----0----0-----0----0------------------------------------|
B|-----5--5---6----1----1----1------3--------------------------------------|
G|---0--0--0---------0----0----0-------------------------------------------|
D|-------------------------------------------------------------------------|
A|-3----------5----0----------------2--------------------------------------|
E|-------------------------------------------------------------------------|
Verse 2
    G                    D                    Am
e|-0---0----0----0-----0----0----0----0----0-----0----0--------------------|
B|-------5----5----5-----3----3----3----3-----6----6-----------------------|
G|---0-----0----0----0-----0----0----0----0-----5----5---------------------|
D|--------------------------------------------0----------------------------|
A|-3-----------------------------------------------------------------------|
E|-----------------------3-------------------------------------------------|
   Em            C           D
e|----0-----0-------0-----0------3-----p0----------------------------------|
B|-1----1--------1-----1-----1-----p0--------------------------------------|
G|---0----0--------2-----2-----0------0------------------------------------|
D|-------------------------------------------------------------------------|
A|-0-----------------------------------------------------------------------|
E|---------------1-----------3---------------------------------------------|
-- G                     D                   Am
e|-0---0----0----0-----0----0----0----0----0-----0----0--------------------|
B|-------5----5----5-----3----3----3----3-----6----6-----------------------|
G|---0-----0----0----0-----0----0----0----0-----5----5---------------------|
D|--------------------------------------------0----------------------------|
A|-3-----------------------------------------------------------------------|
E|-----------------------3-------------------------------------------------|
   Em            C           D
e|-----0-----0-------0----0-----3------3-----------------------------------|
B|-1-----1-------1-----1-----3-----0---------------------------------------|
G|---0-----0-------2-----2-----0------0------------------------------------|
D|-------------------------------------------------------------------------|
A|-0-----0-----------------------------------------------------------------|
E|---------------1-----1-----3---------------------------------------------|
Chorus 2a
   C          D          Em    D/F#    G          C          D
e|----0-----0-----3---0-------0-----0--0--0-1-0------0----0----3----0-------|
B|-1----1-----3----0------1-----3---------------0-0h1--1----3----0----------|
G|---2----2-----0----0------0-----0------0---------------2----0----0--------|
D|------------------------------------------------3-------------------------|
A|------------------------0-----2------3------------------------------------|
E|-1----------3---------------------------------------------3---------------|
  Em     D/F#    G
e|-----0------0-----0--------------------------------------|
B|-1------3------1----1------------------------------------|
G|---0------0------0----0----------------------------------|
D|---------------------------------------------------------|
A|-0------2------3-----------------------------------------|
E|---------------------------------------------------------|
Chorus: 2b
   C          D           Em    D/F#    G          C         D
e|----0-----0-----3----0-------0-----0--0--0-1-0------0----0----------------|
B|-1----1-----3-----0------1-----3---------------0-0h1--1----0--------------|
G|---2----2-----0-----0------0-----0------0---------------2--0--------------|
D|-------------------------------------------------3---------0--------------|
A|-------------------------0-----2------3-----------------------------------|
E|-1----------3-------------------------------------------------------------|
 Pre-solo Part 1
   G             Am  Em              D     G          Am     Em             D
e|-x-x-xx-x-x-xx---0---------------------------------------------------------------|
B|-1-1-11-1-1-11-33--1-1--1-1--1-1---3-1-0h1-1-11-1-1-33-33--1-1--1-1-1-1---3-1-0--|
G|-0-0-00-0-0-00-22--2---------2-----0-----0-0-00-0-0-00-22--2--------2-----0------|
D|-x-x-xx-x-x-xx-00--2---2-----2---2-0-----x-x-xx-x-x-xx-00--2---2----2--2--0------|
A|-3-3-33-3-3-33-----0---------0-----------3-3-33-3-3-33-----0--------0------------|
E|-----------------------------------3--------------------------------------3------|
Solo Part 2
    G                Am     Em
e|-------------------------------------------------------------------------|
B|------------------------------1------------------------------------------|
G|-------------------------------------------------------------------------|
D|--------2~---------/3-2-0--0h2-2~-2-2-2-2-2~-----------------------------|
A|-/3--33----2~-3-33-------3-----------------------------------------------|
E|-------------------------------------------------------------------------|
   D       G                 Am        Em                  D
e|-------------------------------------------------------------------------|
B|-1h3-11-3/5-5~5~55~5~5~55~5/6\5-3\1-3/5~5~55~5~5~55~5~5~-3/6-5~----------|
G|-------------------------------------------------------------5-----------|
D|-------------------------------------------------------------x-----------|
A|-------------------------------------------------------------3-----------|
E|-------------------------------------------------------------------------|
Bridge X6
   G                     D                    Am
e|-0---0----0----0-----0----0----0----0----0-----0----0--------------------|
B|-------5----5----5-----3----3----3----3-----6----6-----------------------|
G|---0-----0----0----0-----0----0----0----0-----5----5---------------------|
D|--------------------------------------------0----------------------------|
A|-3-----------------------------------------------------------------------|
E|-----------------------3-------------------------------------------------|
   Em            C
e|----0-----0-------0-----0-----0----0-------------------------------------|
B|-1----1--------1----1-----1-----1----------------------------------------|
G|---0----0--------2----2-----2-----2--------------------------------------|
D|-------------------------------------------------------------------------|
A|-0-----------------------------------------------------------------------|
E|---------------1---------------------------------------------------------|

Build up with second guitarist w/ no capo. Starts 2x of x6 through bridge
   G    D     Am        Em    C          G        D     Am
e|-----------------5-3-----0--------------------------2-----5-3------------|
B|----------3----5---------------3-3-3---3-3-3-3----3-----5----------------|
G|--------2----5---------------0---0-0---0-0-0-0--2-----5------------------|
D|------0-----------------2--------------0-0-0-0---------------------------|
A|---2------------------------3----3-3-------------------------------------|
E|-3--------------------0----------------3-3-3-3---------------------------|

    Em       C                 G                 D
e|--------------------------------3-3-3-3-3-3-3--5---5----5---5-----5---5---|
B|-----5---------0---1-1-1-1---3-3-3-3-3-3-3-3-----7-----7---7----7---7-----|
G|-------4-----0---0-0-0-0-0---0--------------------------------------------|
D|-----------------------------0--------------------------------------------|
A|-----------3-------3-3-3-3------------------------------------------------|
E|--0--------------------------3--------------------------------------------|
   Am           Em         C                        G
e|---------------7-7-7-7-----------3-------------------3-3-3-3-3-3----------|
B|--10---10-------8-8-8-8---------------------------3-3-3-3-3-3-3-3---------|
G|----9----9---------------5--5-4h5--5-4-5--5-4-5-4-0-----------------------|
D|-----10---10-------------5--5-5-5--5-5-5--5-5-5-5-0-----------------------|
A|--------------------------------------------------------------------------|
E|--------------------------------------------------3-----------------------|
    D                          Am         Em         C
e|--5---5----5---5-----5---5---------------7--7--7---3----------------------|
B|----7-----7---7----7---7-----10--10-------8--8-----3----------------------|
G|-------------------------------9---9-------9--9----0----------------------|
D|--------------------------------10--10-------------2----------------------|
A|---------------------------------------------------3----------------------|
E|--------------------------------------------------------------------------|

Chorus 3a
   C          D          Em    D/F#    G          C         D
e|----0-----0-----3---0-------0-----0--0--0-1-0------0----0----3----0-------|
B|-1----1-----3----0------1-----3---------------0-0h1--1----3----0----------|
G|---2----2-----0----0------0-----0------0---------------2----0----0--------|
D|------------------------------------------------3-------------------------|
A|------------------------0-----2------3------------------------------------|
E|-1----------3---------------------------------------------3---------------|
  Em     D/F#    G
e|-----0------0-----0---0-------------------------------------|
B|-1------3------5----5---------------------------------------|
G|---0------0------0------------------------------------------|
D|------------------------------------------------------------|
A|-0------2------3--------------------------------------------|
E|------------------------------------------------------------|
Chorus: 3b
   C          D           Em    D/F#    G          C         D
e|----0-----0-----3----0-------0-----0--0--0-1-0------0----0----------------|
B|-1----1-----3-----0------1-----3---------------0-0h1--1----0--------------|
G|---2----2-----0-----0------0-----0------0---------------2--0--------------|
D|-------------------------------------------------3---------0--------------|
A|-------------------------0-----2------3-----------------------------------|
E|-1----------3-------------------------------------------------------------|


Outro: x2
  G          Am   Em               D/F#    G
e|-0--0--0--0---0-----0----0-----0----0---0---------------------------------|
B|-----5--5---6----1----1----1------3-----5---------------------------------|
G|---0--0--0---------0----0----0----------0---------------------------------|
D|--------------------------------------------------------------------------|
A|-3----------5----0----------------2-----3---------------------------------|
E|--------------------------------------------------------------------------|

************************************

| /   slide up
| \   slide down
| h   hammer-on
| p   pull-off
| ~   vibrato
| +   harmonic
| x   Mute note
| b   Bend
| pb  Pre-bend
| br  Bend release
| pbr Pre-bend release
| brb Bend release bend

************************************

            
            
Suggest correction
Creating personal tab
Creating personal tab
You can edit any tab online and save it as your Personal.

You can edit, replace or remove any tab part or add personal notes – all changes will be seen only by you.

Personal tabs can be accessed anytime from any device, even offline.
Learn more »
Give kudos to tab author, rate the tab!
1 2 3 4 5
comments
print report bad tab
guest
You may want to rate the tab now too:
select rating
Wanna post a correction for this tab? Suggest correction